Home » E » Elvis Presley »

Elvis Presley - Cant Help Falling In Love With You Ukulele

Artists:  A B C D E F G H I J K L M N O P Q R S T U V W X Y Z # 

Cant Help Falling In Love With You Ukulele

(ver. 1) Click to play this song!
Elvis Presley
[Verse]
    D   F#m   Bm           G     D    A
A|--5----12----5-----7-9---10----9----7--|
E|--2----9-----7-----------7-----10---5--|
C|--2----9-----6-----------7-----9----4--|
G|--2----------------------7-------------|
   Wise  men  say,  only  fools rush in...

       G   A    Bm   G           D     A   D
A|-----2---4----5----7--9---10---9-----7---5---|
E|--5--3---5----7----7-----------10----5---2---|
C|-----2---4----6----7-----------9-----4---2---|
G|-------------------7---------------------2---|
   but I can't help falling in  love with you

    D   F#m    Bm            G   D    A
A|--5----12----5----7----9---10--9----7--|
E|--2----9-----7-------------7---10---5--|
C|--2----9-----6-------------7---9----4--|
G|--2------------------------7-----------|
  Shall  I   stay would  it  be  a   sin

       G   A    Bm   G           D     A   D
A|-----2---4----5----7--9---10---9-----7---5---|
E|--5--3---5----7----7-----------10----5---2---|
C|-----2---4----6----7-----------9-----4---2---|
G|-------------------7---------------------2---|
   if  I can't help falling in  love  with you

[Chorus]
   F#m          C#7  F#m           C#7
A|--------0-4----4----------0---4---4-----|
E|-----2---------4-------2----------4-----|
C|--1------------5----1-------------5-----|
G|---------------4------------------4-----|
  like a river flows surely to the sea

   F#m              C#7  B7                        Em A
A|-------------0-4---4----2-----2----------2-------2--0--|
E|--------2----------4----2-----------2---------2--3--0--|
C|--1--1-------------5----3------------------------4--1--|
G|-------------------4----2---------------------------2--|
   my darling so it goes some things are meant to be

[Verse]
D   F#m Bm
Take my hand,
        G     D     A
Take my whole life, too
    G A     Bm   G          D    A     D
For I can't help falling in love with you

[Chorus]
F#m          C#7
Like a river flows
F#m           C#7
Surely to the sea
F#m            C#7
Darling, so it goes
B7                       Em A
Some things are meant to be

[Verse]
D   F#m Bm
Take my hand,
        G     D     A
Take my whole life, too
    G A     Bm    G         D    A    D
For I can't help falling in love with you
    G A     Bm    G         D    A    D
For I can't help falling in love with you

            
Submit corrections

↑ Back to top | Tablatures and chords for acoustic guitar and electric guitar, ukulele, drums are parodies/interpretations of the original songs. You may use it for private study, scholarship, research or language learning purposes only