» » »

Elvis Presley - Cant Help Falling In Love With You Tabs

Artists:  A B C D E F G H I J K L M N O P Q R S T U V W X Y Z # 

Cant Help Falling In Love With You Tabs

(ver. 3) Click to play this song!
Elvis Presley
 Rating:
4.3/5 (9 votes)

 Cant Help Falling In Love With You lessons Tabs too difficult? Try these video lessons and learn fast
 
                [Solo]
Wise men say only fools rush in but I can't help falling in love with you.
e|----3--0--|------0--1--0---|-----------------|-0--1--0-------------------------|
B|-1--------|1--3-----------3|--------0--1--3--|---------3--1--------------------|
G|----------|----------------|-0---2-----------|---------------------------------|
D|----------|----------------|-----------------|---------------------------------|
A|----------|----------------|-----------------|---------------------------------|
E|----------|----------------|-----------------|---------------------------------|

Shall I stay, would it be a sin If I can't help falling in love with you.
e|----3--0--|------0--1--0--|------------------|-0--1--0--------------------------|
B|-1--------|1--3----------3|--------0--1--3---|--------3--1----------------------|
G|----------|---------------|--0-2-------------|----------------------------------|
D|----------|---------------|------------------|----------------------------------|
A|----------|---------------|------------------|----------------------------------|
E|----------|---------------|------------------|----------------------------------|            
Submit corrections


        Cant Help Falling In Love With You lessons Hard to play? Try these video lessons and learn fast Cant Help Falling In Love With You lessons
        
↑ Back to top | Tablatures and chords for acoustic guitar and electric guitar, ukulele, drums are parodies/interpretations of the original songs. You may use it for private study, scholarship, research or language learning purposes only