Home » E » Elvis Presley »

Elvis Presley - Jailhouse Rock Bass

Artists:  A B C D E F G H I J K L M N O P Q R S T U V W X Y Z # 

Jailhouse Rock Bass

(ver. 1) Click to play this song!
Elvis Presley
----------------------------------------------------------------------------
                      Elvis Presley - Jailhouse Rock
----------------------------------------------------------------------------


Tuning: EADG

INTRO
G|-----------------------------|
D|-----------------------------|
A|-----------------------------|REPEAT x2
E|---2---3-----2---3-----2---3-|

CHORUS
G|------------------2-------------------2-----------------------|
D|--------2-2--5-5----5-------2-2--3-3----5-----------------2---|
A|---3-3-----------------3-3----------------------2-2--5-5----5-|
E|-------------------------------------------3-3----------------|

G|--------------------------------------4-------------------2---|
D|------------------2---------4-4--7-7----7-------2-2--5-5----5-|
A|--------2-2--5-5----5--5-5-----------------3-3----------------|
E|---3-3--------------------------------------------------------|

G|------------------------------------------|
D|------------------2-----------------------|
A|--------2-2--5-5----5-------2-2--5--------|
E|---3-3-----------------3-3----------2---3-|

And then just keep going back and forth from the verse and chorus until the song ends.
            
Submit corrections

↑ Back to top | Tablatures and chords for acoustic guitar and electric guitar, ukulele, drums are parodies/interpretations of the original songs. You may use it for private study, scholarship, research or language learning purposes only