» » »

Elvis Presley - All Shook Up Bass

Artists:  A B C D E F G H I J K L M N O P Q R S T U V W X Y Z # 

All Shook Up Bass

(ver. 1) Click to play this song!
Elvis Presley
 Rating:
4/5 (4 votes)

 All Shook Up lessons Tabs too difficult? Try these video lessons and learn fast
 
                Key signature: A+

Intro: 00:01
G|------------||------------||-----------------------|
D|---------5--||----------5-||----------5-6-5--------|
A|-----5-8----||------5-8---||-----5-8---------8-5---|
E|-5h6--------||-5h6--------||-5h6-------------------|

Verse1: 00:06
G|------------||------------||-----------------------|
D|---------5--||----------5-||----------5-6-5--------|
A|-----5-8----||------5-8---||-----5-8---------8-5---|
E|-5h6--------||-5h6--------||-5h6-------------------|
A well I bless my soul
What's wrong with me?
I'm itching like a man on a fuzzy tree

G|------------||------------||-----------------------|
D|---------5--||----------5-||-----------------------|
A|-----5-8----||------5-8---||-----------------------|
E|-5h6--------||-5h6--------||-5h6.------------------|
My friends say I'm actin' wild as a bug
I'm in love

I'm all shook up

G|---------5--||----------7-||-----------------------|
D|-----5-8----||-----7-10---||----------5-8-5--------|
A|-5h6--------||-7h8--------||-----5-8---------8-5---|
E|------------||------------||-5h6-------------------|
Mm mm oh, oh, yeah, yeah!


Verse2: 00:25
G|------------||------------||-----------------------|
D|---------5--||----------5-||----------5-6-5--------|
A|-----5-8----||------5-8---||-----5-8---------8-5---|
E|-5h6--------||-5h6--------||-5h6-------------------|
My hands are shaky and my knees are weak
I can't seem to stand on my own two feet

G|------------||------------||-----------------------|
D|---------5--||----------5-||-----------------------|
A|-----5-8----||------5-8---||-----------------------|
E|-5h6--------||-5h6--------||-5h6.------------------|
Who do you thank when you have such luck?
I'm in love

I'm all shook up

G|---------5--||----------7-||-----------------------|
D|-----5-8----||-----7-10---||----------5-8-5--------|
A|-5h6--------||-7h8--------||-----5-8---------8-5---|
E|------------||------------||-5h6-------------------|
Mm mm oh, oh, yeah, yeah!


Chorus1: 00:45
G|---------5--||---------5--||-----------------------|
D|-----5-8----||-----5-8----||----------5-8-5--------|
A|-5h6--------||-5h6--------||-----5-8---------8-5---|
E|------------||------------||-5h6-------------------|
Please don't ask me what's on my mind
I'm a little mixed up, but I'm feelin' fine
G|---------5--||---------5--||-----------------------|
D|-----5-8----||-----5-8----||-----------------------|
A|-5h6--------||-5h6--------||-7h8.------------------|
E|------------||------------||-----------------------|
When I'm near that girl that I love best
My heart beats so it scares me to death!


Verse3: 00:58
G|------------||------------||-----------------------|
D|---------5--||----------5-||----------5-6-5--------|
A|-----5-8----||------5-8---||-----5-8---------8-5---|
E|-5h6--------||-5h6--------||-5h6-------------------|
She touched my hand what a chill I got
Her lips are like a volcano that's hot

G|------------||------------||-----------------------|
D|---------5--||----------5-||-----------------------|
A|-----5-8----||------5-8---||-----------------------|
E|-5h6--------||-5h6--------||-5h6.------------------|
I'm proud to say she's my buttercup
I'm in love
I'm all shook up

G|---------5--||----------7-||-----------------------|
D|-----5-8----||-----7-10---||----------5-8-5--------|
A|-5h6--------||-7h8--------||-----5-8---------8-5---|
E|------------||------------||-5h6-------------------|
Mm mm oh, oh, yeah, yeah!


Chorus2: 01:17
G|---------5--||---------5--||-----------------------|
D|-----5-8----||-----5-8----||----------5-8-5--------|
A|-5h6--------||-5h6--------||-----5-8---------8-5---|
E|------------||------------||-5h6-------------------|
My tongue get tied when I try to speak
My insides shake like a leaf on a tree
G|---------5--||---------5--||-----------------------|
D|-----5-8----||-----5-8----||-----------------------|
A|-5h6--------||-5h6--------||-7h8.------------------|
E|------------||------------||-----------------------|
There's only one cure for this body of mine
That's to have the girl that I love so fine!


Verse4: 01:0
G|------------||------------||-----------------------|
D|---------5--||----------5-||----------5-6-5--------|
A|-----5-8----||------5-8---||-----5-8---------8-5---|
E|-5h6--------||-5h6--------||-5h6-------------------|
She touched my hand what a chill I got
Her lips are like a volcano that's hot

G|------------||------------||-----------------------|
D|---------5--||----------5-||-----------------------|
A|-----5-8----||------5-8---||-----------------------|
E|-5h6--------||-5h6--------||-5h6.------------------|
I'm proud to say she's my buttercup
I'm in love
I'm all shook up

G|---------5--||----------7-||-----------------------|
D|-----5-8----||-----7-10---||----------5-8-5--------|
A|-5h6--------||-7h8--------||-----5-8---------8-5---|
E|------------||------------||-5h6-------------------|
Mm mm oh, oh, yeah, yeah!

G|---------5--||----------7-||----------------------||
D|-----5-8----||-----7-10---||----------5-8-5-------||
A|-5h6--------||-7h8--------||-----5-8--------------||
E|------------||------------||-5h6-------------6~---||
Mm mm oh, oh, yeah, yeah!

I'm all shook up


End: 01:59            
Submit corrections


        All Shook Up lessons Hard to play? Try these video lessons and learn fast All Shook Up lessons
        
↑ Back to top | Tablatures and chords for acoustic guitar and electric guitar, ukulele, drums are parodies/interpretations of the original songs. You may use it for private study, scholarship, research or language learning purposes only