» » »

Elvis Presley - All Shook Up Bass

Artists:  A B C D E F G H I J K L M N O P Q R S T U V W X Y Z # 

All Shook Up Bass

(ver. 3) Click to play this song!
Elvis Presley
 Rating:
4.4/5 (5 votes)

 All Shook Up lessons Tabs too difficult? Try these video lessons and learn fast
 
                Intro:
G|----------------------------------------------|
D|-8--5---5----8--5---5----8--5---5----8--5---5-|
A|------8-----------8-----------8-----------8---|
E|----------------------------------------------|

Verse 1:                                                            (Break)
G|------------------------------------------------------------------------|
D|-8--5---5----8--5---5----8--5---5----8--5---5---8--5---5---8--5---5---8-|
A|------8-----------8-----------8-----------8----------8----------8-------|
E|------------------------------------------------------------------------|

Chorus 1:
G|--------5----------7----------------------|
D|---5--8------7--10-----8--5-------------5-|
A|-6---------8----------------8--5---5--8---|
E|---------------------------------6--------|

Verse 2:                                                            (Break)
G|------------------------------------------------------------------------|
D|-8--5---5----8--5---5----8--5---5----8--5---5---8--5---5---8--5---5---8-|
A|------8-----------8-----------8-----------8----------8----------8-------|
E|------------------------------------------------------------------------|

Chorus 2:
G|--------5----------7-------------------------|
D|---5--8------7--10-----8--5--------8--5------|
A|-6---------8----------------8--5--------8--5-|
E|---------------------------------------------|

Bridge:                                                           (Break)
G|--------5--8--5-------------------------------------5--8--5---------|
D|---5--8---------8--5---8------5--8--5----------5--8---------8--5----|
A|-6-----------------------5--8---------8--5---6--------------------8-|
E|--------------------------------------------------------------------|

Verse 3:                                                            (Break)
G|------------------------------------------------------------------------|
D|-8--5---5----8--5---5----8--5---5----8--5---5---8--5---5---8--5---5---8-|
A|------8-----------8-----------8-----------8----------8----------8-------|
E|------------------------------------------------------------------------|

Chorus 2:
G|--------5----------7-------------------------|
D|---5--8------7--10-----8--5--------8--5------|
A|-6---------8----------------8--5--------8--5-|
E|---------------------------------------------|

Bridge:                                                           (Break)
G|--------5--8--5-------------------------------------5--8--5---------|
D|---5--8---------8--5---8------5--8--5----------5--8---------8--5----|
A|-6-----------------------5--8---------8--5---6--------------------8-|
E|--------------------------------------------------------------------|

Verse 3:                                                            (Break)
G|------------------------------------------------------------------------|
D|-8--5---5----8--5---5----8--5---5----8--5---5---8--5---5---8--5---5---8-|
A|------8-----------8-----------8-----------8----------8----------8-------|
E|------------------------------------------------------------------------|

Chorus 2:
G|--------5----------7-------------------------|
D|---5--8------7--10-----8--5--------8--5------|
A|-6---------8----------------8--5--------8--5-|
E|---------------------------------------------|

Outro:                                   (END)
G|--------5----------7-----------------------|
D|---5--8------7--10-----8--5--------8---8-8-|
A|-6---------8----------------8--5-----------|
E|-------------------------------------------|


            
Submit corrections


        All Shook Up lessons Hard to play? Try these video lessons and learn fast All Shook Up lessons
        
↑ Back to top | Tablatures and chords for acoustic guitar and electric guitar, ukulele, drums are parodies/interpretations of the original songs. You may use it for private study, scholarship, research or language learning purposes only