» » »

Elvis Presley - All Shook Up Tabs

Artists:  A B C D E F G H I J K L M N O P Q R S T U V W X Y Z # 

All Shook Up Tabs

(ver. 3) Click to play this song!
Elvis Presley
 Rating:
4/5 (4 votes)

 All Shook Up lessons Tabs too difficult? Try these video lessons and learn fast
 
                Gtr I (E A D G B E) - 'Scotty Moore - Electric Guitar'


 Intro
  Q=146(8=s8)
            A   Bb BbsuBb    A   Bb BbBbs4   A
 4/4
  Gtr I
  H    Q  E E   q  E E E E e E   Q  E E Q  E E
|-----------5s|=6--6-6-6-6-6-5s|=6--6-6------5s=|
|-----------5s|=6--6-6-6-6-6-5s|=6--6-6------5s=|
|-----------6s|=7--8-8-7-7-7-6s|=7--8-7------6s=|
|-----------7s|=8--8-8-8-8-8-7s|=8--8-8------7s=|
|-------------|----------------|----------------|
|-------------|----------------|----------------|


                                     1st - 4th Verses
                                  $
                                  $$
  Bb  BbsBb4   A   Bb  Bbsus4 BbA     Bb BbsuBb    A
  E e Q  E E e E   E E E E Q  e E     q  E E E E e E
|-6-6-6--6-6-6-5s|=6---6------6-5s||==6--6-6-6-6-6-5s=|
|-6-6-6--6-6-6-5s|=6---6------6-5s||o=6--6-6-6-6-6-5s=|
|-7-7-8--7-7-7-6s|=7-7-8-7----7-6s||==7--8-8-7-7-7-6s=|
|-8-8-8--8-8-8-7s|=8----------8-7s||==8--8-8-8-8-8-7s=|
|----------------|----------------||o-----------------|
|----------------|----------------||------------------|


  Bb BbBbs4   A   Bb  BbsBb4   A   Bb  Bbsus4 BbA
  Q  E E Q  E E   E e Q  E E e E   E E E E Q  e E
|-6--6-6------5s|=6-6-6--6-6-6-5s|=6---6------6-5s=|
|-6--6-6------5s|=6-6-6--6-6-6-5s|=6---6------6-5s=|
|-7--8-7------6s|=7-7-8--7-7-7-6s|=7-7-8-7----7-6s=|
|-8--8-8------7s|=8-8-8--8-8-8-7s|=8----------8-7s=|
|---------------|----------------|-----------------|
|---------------|----------------|-----------------|


  Bb  BbsuBb    A   Bb  BbsuBb
  E E E E e E e E   E E E E E E E E   q  Q  H      W
|-6-6-6-6-6-6-6-5s|=6-6-6-6---6-6---|-6----------|------|
|-6-6-6-6-6-6-6-5s|=6-6-6-6---6-6---|-6----------|------|
|-7-7-8-8-7-7-7-6s|=7-7-8-7---7-7---|-7----------|------|
|-8-8-8-8-8-8-8-7s|=8-8-8-8---8-8---|-8----------|------|
|-----------------|-----------------|------------|------|
|-----------------|-----------------|------------|------|


                                                1.
                                       To Coda
  Eb          F7            A   Bb          A    Bb        A
   W           H.       +E  E   H.      +E  E    H.      E E
|-11--------|-11-------(11)-5s|=6-------(6)-5s=|=6---------5s==||
|-11--------|-10-------(10)-5s|=6-------(6)-5s=|=6---------5s=o||
|-12--------|-10-------(10)-6s|=7-------(7)-6s=|=7---------6s==||
|-----------|---------------7s|=8-------(8)-7s=|=8---------7s==||
|-----------|-----------------|----------------|--------------o||
|-----------|-----------------|----------------|---------------||


             Bridge
  2.
  Bb          Eb5                                 Bb
  W           E e E e E e E e   E e E e E e E e   E e E e E e E e
|-6--------||-----------------|-----------------|------------------|
|-6--------||-----------------|-----------------|-x-6-x-6-x-6-x-6--|
|-7--------||-x-8-x-8-x-8-x-8-|-x-8-x-8-x-8-x-8-|-x-7-x-7-x-7-x-7--|
|-8--------||-x-8-x-8-x-8-x-8-|-x-8-x-8-x-8-x-8-|-x-8-x-8-x-8-x-8--|
|----------||-x-6-x-6-x-6-x-6-|-x-6-x-6-x-6-x-6-|------------------|
|----------||-----------------|-----------------|------------------|


                    Eb5                                 F5
  E e E e E e E e   E e E e E e E e   E e E e E e E e    q  Q  H
|-----------------|-----------------|-----------------|-------------|
|-x-6-x-6-x-6-x-6-|-----------------|-----------------|-------------|
|-x-7-x-7-x-7-x-7-|-x-8-x-8-x-8-x-8-|-x-8-x-8-x-8-x-8-|-10----------|
|-x-8-x-8-x-8-x-8-|-x-8-x-8-x-8-x-8-|-x-8-x-8-x-8-x-8-|-10----------|
|-----------------|-x-6-x-6-x-6-x-6-|-x-6-x-6-x-6-x-6-|--8----------|
|-----------------|-----------------|-----------------|-------------|


                  Outro
           D.S. &
           D.S.
            A      Bb         Eb
  H    Q  E E      W           W
|-----------5/--||-6--------|-11----|
|-----------5/--||-6--------|-11----|
|-----------6/--||-7--------|-12----|
|-----------7/--||-8--------|-------|
|---------------||----------|-------|
|---------------||----------|-------|


  F5            A   Bb  BbBbs4
   H.       +E  E   E E E e E E q    q  E E H
|-11-------(11)-5s|=6-6-6-6-6-6-6--|-6--6-6------*|
|-10-------(10)-5s|=6-6-6-6-6-6-6--|-6--6-6------*|
|-10-------(10)-6s|=7-7-8-7-7-7-7--|-7--7-7------*|
|---------------7s|=8-8-8-8-8-8-8--|-8--8-8------*|
|-----------------|----------------|-------------*|
|-----------------|----------------|-------------*|


            
Submit corrections


        All Shook Up lessons Hard to play? Try these video lessons and learn fast All Shook Up lessons
        
↑ Back to top | Tablatures and chords for acoustic guitar and electric guitar, ukulele, drums are parodies/interpretations of the original songs. You may use it for private study, scholarship, research or language learning purposes only