» » »

Elvis Presley - All Shook Up Bass

Artists:  A B C D E F G H I J K L M N O P Q R S T U V W X Y Z # 

All Shook Up Bass

(ver. 2) Click to play this song!
Elvis Presley
 Rating:
4.4/5 (8 votes)

 All Shook Up lessons Tabs too difficult? Try these video lessons and learn fast
 
                G|----------------|----------------|----------------|----------------|
D|--------2---4-2-|--------2---4-2-|--------2---4-2-|--------2---4-2-|
A|0---4-----------|0---4-----------|0---4-----------|0---4-----------|
E|----------------|----------------|----------------|----------------|
 [Intro:]                                          [Verse 1:]A well I, 

G|----------------|2---------------|----------------|
D|--------2---4---|----4---2-------|--------2---4---|
A|0---4-----------|------------4---|0---4-----------|
E|----------------|----------------|----------------|
bless my soul What's wrong with me?  I'm itching like a man on a 

G|2---------------|----------------|2---------------|
D|----4---2-------|--------2---4-2-|----4---2-------|
A|------------4---|0---4-----------|------------4---|
E|----------------|----------------|----------------|
fuzzy tree    My friends say I'm actin wild as a bug I'm in

G|----------------|----------------|------------4---|------------6---|
D|----------------|----------------|----4---7-------|----6---9-------|
A|0---------------|----------------|5---------------|7---------------|
E|----------------|----------------|----------------|----------------|
love          I'm all shook up_ ooh________       ooh_____        yeah,__

G|----------------|----------------|----------------|----------------|
D|7---4-----------|--------2---4---|--------2---4---|--------2---4-2-|
A|--------7---4---|0---4-----------|0---4-----------|0---4-----------|
E|----------------|----------------|----------------|----------------|
yeah,________ yeah!_ [Verse 2:] My hands are shaky and my knees are weak I

G|2---------------|----------------|----------------|----------------|
D|----4---2-------|--------2---4---|--------2-------|--------2---4---|
A|------------2---|0---4-----------|0---4-------4---|0---4-----------|
E|----------------|----------------|----------------|----------------|
can't seem to stand on my own two feet Who do you thank when you have such luck? I'm in 

G|----------------|----------------|------------4---|------------6---|
D|----------------|----------------|----4---7-------|----6---9-------|
A|0---------------|----------------|5---------------|7---------------|
E|----------------|----------------|----------------|----------------|
love          I'm all shook up_ ooh________       ooh_____        yeah,__

G|----------------|----------------||-------------4---|5---4-----------|
D|7---4-----------|--------2---4---||o----4---7-------|--------7---4---|
A|--------7---4---|0---4-----------||o5---------------|----------------|
E|----------------|----------------||-----------------|----------------|
yeah,________ yeah!__   [Chorus 1]:Well, Please don't ask me what's on my mind I'm a
                        [Chorus 2]:Tongue get tied when I try to speak, my

G|----------------|----------------|------------4---|
D|--------2---4---|--------2---4---|----4---7-------|
A|0---4-----------|0---4-----------|5---------------|
E|----------------|----------------|----------------|
little mixed up, but I'm feelin fine When I'm near that girl that 
insides shake like a leaf on a tree  There's only one cure for this

G|5---4-----------|----------------|----------------|
D|--------7---4---|----------------|----------------|
A|----------------|7---------------|----------------|
E|----------------|----------------|----------------|
I love best_ My heart beats so it scares me to death! She  [Verse 3:]
body of mine_ That's to have the girl that I love so fine! [Verse 3:] She

G|----------------|----------------|2---------------|
D|--------2---4---|------------4-2-|----4---2-------|
A|0---4-----------|0---4-----------|------------4---|
E|----------------|----------------|----------------|
touched my hand what a chill I got Her lips are like a volcano 

G|----------------|----------------|----------------|
D|--------2---4---|--------2-------|--------2---4---|
A|0---4-----------|0---4-------4---|0---4-----------|
E|----------------|----------------|----------------|
that's hot I'm proud to say she's my buttercup I'm in 

G|----------------|----------------|------------4---|------------6---|
D|----------------|----------------|----4---7-------|----6---9-------|
A|0---------------|----------------|5---------------|7---------------|
E|----------------|----------------|----------------|----------------|
love          I'm all shook up_ ooh________       ooh_____        yeah,__

 __________________________________  _________________________________
|                      1st Time Bar||                     2nd Time Bar
G|----------------|-----------------||----------------|----------------|
D|7---4-----------|--------2-------o||7---4-----------|--------2---4---|
A|--------7---4---|0---4-------4---o||--------7---4---|0---4-----------|
E|----------------|-----------------||----------------|----------------|
---yeah,______yeah.___         My     ___yeah_____yeah;_______     ooh

G|------------4---|------------6---|----------------|----------------|
D|----4---7-------|----6---9-------|7---4-----------|----------------|
A|5---------------|7---------------|--------7---4---|0---0-0---------|
E|----------------|----------------|----------------|----------------|
              ooh___           yeah___ yeah___    i'm all shook up!
            
Submit corrections


        All Shook Up lessons Hard to play? Try these video lessons and learn fast All Shook Up lessons
        
↑ Back to top | Tablatures and chords for acoustic guitar and electric guitar, ukulele, drums are parodies/interpretations of the original songs. You may use it for private study, scholarship, research or language learning purposes only