Home » D » Doors »

Doors - Peace Frog Bass

Artists:  A B C D E F G H I J K L M N O P Q R S T U V W X Y Z # 

Peace Frog Bass

(ver. 2) Click to play this song!
Doors
 Rating:
4/5 (4 votes)
                
intro:
G|-------------------------------------------|----------------------------------------|
D|------------------10--(10)-8-10-8-10-8-----|-------------------10--(10)-8-10-8-10-8-|
A|----8--10--10---------------------------10-|----8--10--10---------------------------|
E|--10---------------------------------------|--10------------------------------------|

Verse:
G|-------------------------------------------|----------------------------------------|
D|------------------10--(10)-8-10-8-10-8-----|-------------------10--(10)-8-10-8-10-8-|
A|----8--10--10---------------------------10-|----8--10--10---------------------------|
E|--10---------------------------------------|--10------------------------------------|

Chorus:
G|-------------------|-------------------------|-------------------------------|
D|-------------------|-12----12----12----12----|--------------------14---14-14-|
A|--7-7-7-7-7-7-7/10-|-10-10-10-10-10-10-10-10-|-9-9-9-9-9-9-9-9/12-12---12-12-|
E|-------------------|-------------------------|-------------------------------|

Interlude:
G|-------------------------------------------|---------------------------------------------|
D|-----------7------9------7-------7---------|-----------7------9------7--------7----------|
A|----7--10-----10-------------10-----10---7-|----7--10-----10--------------10-----10---7--|
E|-------------------------------------------|---------------------------------------------|

Bridge:
G|-------------|--9----------|--------------|-----------|----------|------------|---------|
D|guitar-plays-|-------------|-5------------|-7-------7/|1---------|------------|---------|
A|---then------|-------------|--------------|-----------|----------|-3----------|-5-------|
E|--bass-plays-|-------------|--------------|-----------|----------|------------|---------|


Outro:
G|-------------------------------------------|----------------------------------------|----------|
D|------------------10--(10)-8-10-8-10-8-----|-------------------10--(10)-8-10-8-10-8-|play this |
A|----8--10--10---------------------------10-|----8--10--10---------------------------|to the end|
E|--10---------------------------------------|--10------------------------------------|----------|


that's it you can figure out the order of this tab by listening to the song.
Don't forget to leave comments.
P.S  by the way this is from guitar world.
            
Submit corrections

↑ Back to top | Tablatures and chords for acoustic guitar and electric guitar, ukulele, drums are parodies/interpretations of the original songs. You may use it for private study, scholarship, research or language learning purposes only