» » »

Doors - Peace Frog Tabs

Artists:  A B C D E F G H I J K L M N O P Q R S T U V W X Y Z # 

Peace Frog Tabs

(ver. 3) Click to play this song!
Doors
 Rating:
4/5 (4 votes)

 Peace Frog lessons Tabs too difficult? Try these video lessons and learn fast
 
                Gtr I (E A D G B E) - 'Robby Krieger - Electric Guitar'


   Intro
    Moderately Q=112
    G5
   4/4
    Gtr I
    E. S E S S S S S S S S E
||---------------------------|
||o-3--x-3-------------------|
||--0--x-0-------------------|
||--5--x-5-x-x---x-x-x-x-x---|
||o-5--x-5-x-x---x-x-x-x-x---|
||--3--x-3-x-x-0-x-x-x-x-x-0-|


  E. S E S S S S S S S S E   E. S E S S S S S S S S E
|--------------------------|---------------------------|
|-3--x-3-------------------|-3--x-3--------------------|
|-0--x-0-------------------|-0--x-0--------------------|
|-5--x-5-x-x---x-x-x-x-x---|-5--x-5-x-x---x-x-x-x-x----|
|-5--x-5-x-x---x-x-x-x-x---|-5--x-5-x-x---x-x-x-x-x----|
|-3--x-3-x-x-0-x-x-x-x-x-0-|-3--x-3-x-x-0-x-x-x-x-x-0--|


  E. S E S S S S S S S S E
|---------------------------||-|
|-3--x-3-------------------o||-|
|-0--x-0--------------------||-|
|-5--x-5-x-x---x-x-x-x------||-|
|-5--x-5-x-x---x-x-x-x-----o||-|
|-3--x-3-x-x-0-x-x-x-x-0-0--||-|


   1st & 2nd Verses
    G5
    E. S E S S S S S S S S E   E. S E S S S S S S S S E
||---------------------------|--------------------------|
||o-3--x-3-------------------|-3--x-3-------------------|
||--0--x-0-------------------|-0--x-0-------------------|
||--5--x-5-x-x---x-x-x-x-x---|-5--x-5-x-x---x-x-x-x-x---|
||o-5--x-5-x-x---x-x-x-x-x---|-5--x-5-x-x---x-x-x-x-x---|
||--3--x-3-x-x-0-x-x-x-x-x-0-|-3--x-3-x-x-0-x-x-x-x-x-0-|


  E. S E S S S S S S S S E
|--------------------------|
|-3--x-3-------------------|
|-0--x-0-------------------|
|-5--x-5-x-x---x-x-x-x-x---|
|-5--x-5-x-x---x-x-x-x-x---|
|-3--x-3-x-x-0-x-x-x-x-x-0-|


  E. S E S S S S S S S S E   E. S E S S S S S S S S E
|--------------------------|---------------------------|
|-3--x-3-------------------|-3--x-3--------------------|
|-0--x-0-------------------|-0--x-0--------------------|
|-5--x-5-x-x---x-x-x-x-x---|-5--x-5-x-x---x-x-x-x-x----|
|-5--x-5-x-x---x-x-x-x-x---|-5--x-5-x-x---x-x-x-x-x----|
|-3--x-3-x-x-0-x-x-x-x-x-0-|-3--x-3-x-x-0-x-x-x-x-x-0--|


  E. S E S S S S S S S S E
|--------------------------|
|-3--x-3-------------------|
|-0--x-0-------------------|
|-5--x-5-x-x---x-x-x-x-x---|
|-5--x-5-x-x---x-x-x-x-x---|
|-3--x-3-x-x-0-x-x-x-x-x-0-|


  E. S E S S S S S S S S E   E. S E S S S S S S S S E
|--------------------------|---------------------------|
|-3--x-3-------------------|-3--x-3--------------------|
|-0--x-0-------------------|-0--x-0--------------------|
|-5--x-5-x-x---x-x-x-x-x---|-5--x-5-x-x---x-x-x-x-x----|
|-5--x-5-x-x---x-x-x-x-x---|-5--x-5-x-x---x-x-x-x-x----|
|-3--x-3-x-x-0-x-x-x-x-x-0-|-3--x-3-x-x-0-x-x-x-x-x-0--|


                                Chorus
                                   Em                G
  S S S S S S S S S S S S E E    E  Q  E S S E E E   E   +S  S E E S S S S E E
|-----------------------------||-------------------|---------------------------|
|-3-3-3-----------------------||-------3-----------|---------------------------|
|-0-0-0-----------------------||---/4----2p0---0---|-2b4r(2)-0---0---------0---|
|-5-5-5---x-x-x-x---x-x-x-x---||-------------2---2-|-----------2-------0h2---2-|
|-5-5-5---x-x-x-x---x-x-x-x---||-------------------|---------------0h2---------|
|-3-3-3---x-x-x-x---x-x-x-x---||-------------------|---------------------------|


  1.
  F#m                         A
                    |-3-|
  E S S E S S E S S S S S E    S S S S E H    E
|-------------------------0-|----5-----5---------||
|-------------------0h2h3---|-------------------o||
|-------------0h2h4---------|-/6---6-6-----------||
|-------0h2h4---------------|--------------------||
|-0h2h4---------------------|-------------------o||
|---------------------------|--------------------||


 2.
  F#m                     A
  E S S E S S E S S E E   Q    +S  S E E Q     +E
|---------------------0-|-7b9r=(7)-5---5-------------|
|-------------------0---|------------7---7b8===(7)r==|
|-------------0h2h4-----|----------------------------|
|-------0h2h3-----------|----------------------------|
|-0h2h4-----------------|----------------------------|
|-----------------------|----------------------------|


                                                   Interlude
  G#5                         B                     N.C.
  +E  E E E   +E  S S S S E    S S S S E E H        E E E S S S S S S S S E   3x
|---------------------------|----7-----7--------||----------------------------||
|-(7)-7-4-------------------|-------------------||o--------------------------o||
|---------6b8r(6)-6-4-6-4---|-/8-----8----------||----------------------------||
|-------------------------6-|-------------------||----------------------------||
|---------------------------|-------------------||o-----0---2---0-----0------o||
|---------------------------|-------------------||--0-3---3---------3---3-0---||


                          Em
  E E E S S S S S S E E   Q  Q  Q  Q    e E e E e S S E  E
|-----------------------|-0-----0-----|-0---0---0---0----------||
|-----------------------|-0-----0-----|-0---0---0---0---18b20==||
|-----------------------|-0-----0-----|-0---0---0---0----------||
|-----------------------|-2-----2-----|-2---2---2---2----------||
|-----0---2---0-----0---|-------------|------------------------||
|-0-3---3---------3-----|-------------|------------------------||


 Guitar Solo
   +E    S  S  S     S  S     +S   S     +S   S  S  S  S  e
|-----------------------------------------------------------|
|-(18)r-18-15-------15--------------------------------------|
|-------------17b19----17b19r(17)-17b19r(17)-15-17-15----15-|
|-----------------------------------------------------17----|
|-----------------------------------------------------------|
|-----------------------------------------------------------|


   S     +S   e  E     S  S    S  S  S    S  e  S     +S
|----------------------------------------------------------|
|------------15-------15---------15---------15-------------|
|-17b19r(17)----17b19----17b19------17b19------17b19r(17)--|
|----------------------------------------------------------|
|----------------------------------------------------------|
|----------------------------------------------------------|


   +E      e  E     S  S    S  S  E     e  S     +S
|----------------------------------------------------|
|---------15-------15---------15-------15------------|
|-(17)b19----17b19----17b19------17b19----17b19r(17)-|
|----------------------------------------------------|
|----------------------------------------------------|
|----------------------------------------------------|


   +E      S S  E     S  S    S  S  E     e  S  S
|-------------------------------------------------|
|---------15---------15---------15-------15-------|
|-(17)b19------17b19----17b19------17b19----------|
|-------------------------------------------------|
|-------------------------------------------15-16-|
|-------------------------------------------------|


   S  S  S  S  S  S  S  S  S  S  S  S  S  S  E
|----------------------------------15-16-17-17b19r|
|-------------------------15-16-17----------------|
|----------------15-16-17-------------------------|
|-------15-16-17----------------------------------|
|-17-17-------------------------------------------|
|-------------------------------------------------|


                                                                  Bridge
                                                                   Dsus4
   +E   S  S  S     S  S     S  S      +S    S  S      +S    E.    W
|-(17)-17-15-------15-------15--------------15------------------||-5----|
|------------18b20----18b20----18b20==(18)r----18b20==(18)r-----||-3----|
|-----------------------------------------------------------17\-||-0----|
|---------------------------------------------------------------||-0----|
|---------------------------------------------------------------||------|
|---------------------------------------------------------------||------|


                   G7         A7         Eb
  a a a W          W          W          W
|----------------|----------|----------|------|
|-------5--------|-6--------|-5--------|-4----|
|-----x----------|-0--------|-0--------|-0----|
|---x------------|----------|----------|------|
|-x--------------|----------|----------|------|
|----------------|----------|----------|------|


                           3rd Verse
  C          D7             G5
  W          E H    Q  E    E. S e E H      E. S E E H
|----------|-------------||---------------|---------------|
|-5--------|-3-----------||-3--3-3--------|-3--3-3--------|
|-5--------|-5-----------||-0--0-0--------|-0--0-0--------|
|-5--------|-0-----------||-5--5-5--------|-5--5-5--------|
|-3--------|-------------||-5--5-5--------|-5--5-5--------|
|----------|-------------||-3--3-3--------|-3--3-3--------|


    E. S E S S S S S S S S E
||---------------------------|
||o-3--x-3-------------------|
||--0--x-0-------------------|
||--5--x-5-x-x---x-x-x-x-x---|
||o-5--x-5-x-x---x-x-x-x-x---|
||--3--x-3-x-x-0-x-x-x-x-x-0-|


  E. S E S S S S S S S S E   E. S E S S S S S S S S E
|--------------------------|---------------------------||
|-3--x-3-------------------|-3--x-3-------------------o||
|-0--x-0-------------------|-0--x-0--------------------||
|-5--x-5-x-x---x-x-x-x-x---|-5--x-5-x-x---x-x-x-x-x----||
|-5--x-5-x-x---x-x-x-x-x---|-5--x-5-x-x---x-x-x-x-x---o||
|-3--x-3-x-x-0-x-x-x-x-x-0-|-3--x-3-x-x-0-x-x-x-x-x-0--||


  E. S E S S S S S S S S E   E. S E S S S S S S S S E
|--------------------------|--------------------------||
|-3--x-3-------------------|-3--x-3-------------------||
|-0--x-0-------------------|-0--x-0-------------------||
|-5--x-5-x-x---x-x-x-x-x---|-5--x-5-x-x---x-x-x-x-x---||
|-5--x-5-x-x---x-x-x-x-x---|-5--x-5-x-x---x-x-x-x-x---||
|-3--x-3-x-x-0-x-x-x-x-x-0-|-3--x-3-x-x-0-x-x-x-x-x-0-||


 Outro
  G5
  E. S E S S S S S S S S E
|---------------------------|
|-3--x-3--------------------|
|-0--x-0--------------------|
|-5--x-5-x-x---x-x-x-x-x----|
|-5--x-5-x-x---x-x-x-x-x----|
|-3--x-3-x-x-0-x-x-x-x-x-0--|


  E. S E S S S S S S S S E
|--------------------------|
|-3--x-3-------------------|
|-0--x-0-------------------|
|-5--x-5-x-x---x-x-x-x-x---|
|-5--x-5-x-x---x-x-x-x-x---|
|-3--x-3-x-x-0-x-x-x-x-x-0-|


  E. S E S S S S S S S S E   E. S E S S S S S S S S E
|--------------------------|---------------------------|
|-3--x-3-------------------|-3--x-3--------------------|
|-0--x-0-------------------|-0--x-0--------------------|
|-5--x-5-x-x---x-x-x-x-x---|-5--x-5-x-x---x-x-x-x-x----|
|-5--x-5-x-x---x-x-x-x-x---|-5--x-5-x-x---x-x-x-x-x----|
|-3--x-3-x-x-0-x-x-x-x-x-0-|-3--x-3-x-x-0-x-x-x-x-x-0--|


  Gm7
  E. S e S S S S S S S S E   E. S e S S S S S S S S E
|-6--6-6-x-x-x-x-x-x-x-x---|-6--6-6-x-x-x-x-x-x-x-x---|
|-6--6-6-x-x-x-x-x-x-x-x---|-6--6-6-x-x-x-x-x-x-x-x---|
|-x--x-x-x-x-x-x-x-x-x-x---|-x--x-x-x-x-x-x-x-x-x-x---|
|-5--5-5-x-x-x-x-x-x-x-x---|-5--5-5-x-x-x-x-x-x-x-x---|
|--------x-x-x-x-x-x-x-x---|--------x-x-x-x-x-x-x-x---|
|--------x-x-x-x-x-x-x-x-0-|--------x-x-x-x-x-x-x-x-0-|


  G5
  E. S E S S S S S S S S E   e. s e S S S S S S S S E
|--------------------------|--------------------------|
|-3--3-3-------------------|-3--3-3-x-x---x-x-x-x-x---|
|-0--0-0-------------------|-0--0-0-x-x---x-x-x-x-x---|
|-5--5-5-x-x---x-x-x-x-x---|-5--5-5-x-x---x-x-x-x-x---|
|-5--5-5-x-x---x-x-x-x-x---|-5--5-5-x-x---x-x-x-x-x---|
|-3--3-3-x-x---x-x-x-x-x-0-|-3--3-3-x-x-0-x-x-x-x-x-0-|


  S S e e S S S S S S S E.   e e e S S S S S S S S E
|--------------------------|-------------------------|
|-3-3-3-3-x-x---x-x-x-x----|-3-3-3-3-3---x-x-x-x-x---|
|-0-0-0-0-x-x---x-x-x-x-0--|-0-0-0-0-0---x-x-x-x-x---|
|-5-5-5-5-x-x---x-x-x-x----|-5-5-5-5-5---x-x-x-x-x---|
|-5-5-5-5-x-x---x-x-x-x----|-5-5-5-5-5---x-x-x-x-x---|
|-3-3-3-3-x-x-0-x-x-x-x----|-3-3-3-3-3-0-x-x-x-x-x-0-|


  Gm7                         G5
  S S e E S S S S S S S S E   S S e e S S S S S S S S E
|-6-6-6-6-x-x---x-x-x-x-x---|---------------------------|
|-6-6-6-6-x-x---x-x-x-x-x---|-3-3-3-3-x-x---x-x-x-x-x---|
|-x-x-x-x-x-x---x-x-x-x-x---|-0-0-0-0-x-x---x-x-x-x-x---|
|-5-5-5-5-x-x---x-x-x-x-x---|-5-5-5-5-x-x---x-x-x-x-x---|
|---------x-x---x-x-x-x-x---|-5-5-5-5-x-x---x-x-x-x-x---|
|-------------------------0-|-3-3-3-3-x-x---x-x-x-x-x-0-|


  S S e e S S S S S S S S E
|---------------------------|
|-3-3-3-3-x-x---x-x-x-x-x---|
|-0-0-0-0-x-x---x-x-x-x-x---|
|-5-5-5-5-x-x---x-x-x-x-x---|
|-5-5-5-5-x-x---x-x-x-x-x---|
|-3-3-3-3-x-x---x-x-x-x-x-0-|


  S S e e S S S S S S S S E   S S e e S S S S S S e E
|---------------------------|--------------------------*|
|-3-3-3-3-x-x---x-x-x-x-x---|-3-3-3-3-x-x--------------*|
|-0-0-0-0-x-x---x-x-x-x-x---|-0-0-0-0-x-x--------------*|
|-5-5-5-5-x-x---x-x-x-x-x---|-5-5-5-5-x-x---x-x-x------*|
|-5-5-5-5-x-x---x-x-x-x-x---|-5-5-5-5-x-x---x-x-x------*|
|-3-3-3-3-x-x---x-x-x-x-x-0-|-3-3-3-3-x-x-0-x-x-x-0----*|            
Submit corrections


        Peace Frog lessons Hard to play? Try these video lessons and learn fast Peace Frog lessons
        
↑ Back to top | Tablatures and chords for acoustic guitar and electric guitar, ukulele, drums are parodies/interpretations of the original songs. You may use it for private study, scholarship, research or language learning purposes only