» » »

Doors - Peace Frog Bass

Artists:  A B C D E F G H I J K L M N O P Q R S T U V W X Y Z # 

Peace Frog Bass

(ver. 3) Click to play this song!
Doors
 Rating:
4.3/5 (22 votes)

 Peace Frog lessons Tabs too difficult? Try these video lessons and learn fast
 
                [Intro]
  Q=111(16=s16)
 4/4
  Gtr I
   W          W          W          W
G|----------|----------|----------|------|
D|----------|----------|----------|------|
A|----------|----------|----------|------|
E|----------|----------|----------|------|


   S S  e  E S  S  +S  S  S S  S S  e
G|-------------------------------------|
D|--------------10-(10)-8-10-8-10-8----|
A|----8-10-10-----------------------10-|
E|-10----------------------------------|


   S S  e  E S  S  +S  S  S S  S S  e    S S  e  E S  S  +S  S  S S  S S  e
G|-------------------------------------|-------------------------------------|
D|--------------10-(10)-8-10-8-10-8----|--------------10-(10)-8-10-8-10-8----|
A|----8-10-10-----------------------10-|----8-10-10-----------------------10-|
E|-10----------------------------------|-10----------------------------------|


                                        [1st Verse]
   S S  e  E S  S  +S  S  S S  S S  e      S S  e  E S  S  +S  S  S S  S S  e
G|-------------------------------------||--------------------------------------|
D|--------------10-(10)-8-10-8-10-8----||o--------------10-(10)-8-10-8-10-8----|
A|----8-10-10-----------------------10-||o----8-10-10-----------------------10-|
E|-10----------------------------------||--10----------------------------------|


   S S  e  E S  S  +S  S  S S  S S  e  5x
G|--------------------------------------||
D|--------------10-(10)-8-10-8-10-8----o||
A|----8-10-10-----------------------10-o||
E|-10-----------------------------------||


 [Chorus]
   E E E E E E E   E    E  E  E  E  E  E  E  E
G|-------------------|-------------------------|
D|-------------------|-12----12----12----12----|
A|-7-7-7-7-7-7-7-/10-|-10-10-10-10-10-10-10-10-|
E|-------------------|-------------------------|


   E E E E E E E E    S  e  S  q  H
G|-----------------|-------------------|
D|-----------------|----14-14-14-------|
A|-9-9-9-9-9-9-9-9S|=12-12-12-12-------|
E|-----------------|-------------------|


  [2nd Verse]
     S S  e  E S  S  +S  S  S S  S S  e
G||--------------------------------------|
D||o--------------10-(10)-8-10-8-10-8----|
A||o----8-10-10-----------------------10-|
E||--10----------------------------------|


                                         [Chorus]
   S S  e  E S  S  +S  S  S S  S S  e  4x E E E E E E E   E
G|--------------------------------------||-------------------|
D|--------------10-(10)-8-10-8-10-8----o||-------------------|
A|----8-10-10-----------------------10-o||-7-7-7-7-7-7-7-/10-|
E|-10-----------------------------------||-------------------|


   E  E  E  E  E  E  E  E    E E  E E  E E  E E    E  E  E  E  E  E  E  E
G|-------------------------|---------------------|-------------------------|
D|-12----12----12----12----|-11---11---11---11---|-14----14----14----14----|
A|-10-10-10-10-10-10-10-10-|--9-9--9-9--9-9--9-9-|-12-12-12-12-12-12-12-12-|
E|-------------------------|---------------------|-------------------------|


   E  E  E  E  E  E  E  E    S  e  S  q  H
G|-------------------------|-------------------|
D|-13----13----13----13----|-------------------|
A|-11-11-11-11-11-11-11-11-|-14-14-14-14-------|
E|-------------------------|-------------------|


  [Interlude]
     e  e e  S S S S S  S S  S e  4x
G||-------------------------------||
D||o------7----9---7------7------o||
A||o-7-10---10---------10---10-7-o||
E||-------------------------------||


                                  [Guitar Solo] 
   q  Q  q  Q    E E E E E E e e      S S  e  E S  S  +S  S  S S  S S  e  6x
G|-------------|-----------------||---------------------------------------||
D|-------------|-----------------||o--------------10-(10)-8-10-8-10-8----o||
A|-7-----7-----|---7---7---7-7-7-||o----8-10-10-----------------------10-o||
E|-------------|-----------------||--10-----------------------------------||


 [Bridge]
   W          W          W          H.      Q
G|----------|-9--------|----------|-------------|
D|----------|----------|-5--------|-7-------7\--|
A|----------|----------|----------|-------------|
E|----------|----------|----------|-------------|


   W          W          Q  Q  H
G|----------|----------|------------||
D|-1--------|----------|------------||
A|----------|-3--------|-5----------||
E|----------|----------|------------||


  [3rd Verse]
     S S  e  E S  S  +S  S  S S  S S  e
G||--------------------------------------|
D||o--------------10-(10)-8-10-8-10-8----|
A||o----8-10-10-----------------------10-|
E||--10----------------------------------|


   S S  e  E S  S  +S  S  S S  S S  e   4x
G|---------------------------------------||
D|--------------10-(10)-8-10-8-10-8-----o||
A|----8-10-10-----------------------10--o||
E|-10------------------------------------||


  [Outro]
     S S  e  E S  S  +S  S  S S  S S  e
G||--------------------------------------|
D||o--------------10-(10)-8-10-8-10-8----|
A||o----8-10-10-----------------------10-|
E||--10----------------------------------|


   S S  e  E S  S  +S  S  S S  S S  e   6x
G|---------------------------------------||
D|--------------10-(10)-8-10-8-10-8-----o||
A|----8-10-10-----------------------10--o||
E|-10------------------------------------||


   S S  e  E S  S  +S  S  S S  S S  e    S S  e  E S  S  +S  S  S S  E E
G|-------------------------------------|----------------------------------*|
D|--------------10-(10)-8-10-8-10-8----|--------------10-(10)-8-10-8------*|
A|----8-10-10-----------------------10-|----8-10-10------------------10---*|
E|-10----------------------------------|-10-------------------------------*|

[Lyrics]
There's blood in the streets, it's up to my ankles
She came
Blood in the streets, it's up to my knee
She came
Blood in the streets in the town of Chicago
She came
Blood on the rise, it's following me
Think about the break of day

She came and then she drove away
Sunlight in her hair

She came
Blood in the streets runs a river of sadness
She came
Blood in the streets it's up to my thigh
She came
Yeah the river runs red down the legs of a city
She came
The women are crying red rivers of weepin'

She came into town and then she drove away
Sunlight in her hair

Indians scattered on dawn's highway bleeding
Ghosts crowd the young child's fragile eggshell mind

Blood in the streets in the town of New Haven
Blood stains the roofs and the palm trees of Venice
Blood in my love in the terrible summer
Bloody red sun of Phantastic L.A.

Blood screams her brain as they chop off her fingers
Blood will be born in the birth of a nation
Blood is the rose of mysterious union

There's blood in the streets, it's up to my ankles
Blood in the streets, it's up to my knee
Blood in the streets in the town of Chicago
Blood on the rise, it's following me             
Submit corrections


        Peace Frog lessons Hard to play? Try these video lessons and learn fast Peace Frog lessons
        
↑ Back to top | Tablatures and chords for acoustic guitar and electric guitar, ukulele, drums are parodies/interpretations of the original songs. You may use it for private study, scholarship, research or language learning purposes only