» » »

Doors - Love Street Bass

Artists:  A B C D E F G H I J K L M N O P Q R S T U V W X Y Z # 

Love Street Bass

(ver. 3) Click to play this song!
Doors
 Rating:
4/5 (4 votes)

 Love Street lessons Tabs too difficult? Try these video lessons and learn fast
 
                Love Street - The Doors


TThe bassline on this song is double-tracked, and the lines are
slightly different. Both are played by frequent Doors session
bassist Doug Lubahn on an electric bass using a pick. The first
and more prominent line is mixed to center and is shown on the
top half of the notation. The other line is slightly muddier
and mixed to the left channel and is shown on the bottom half
of the notation, but I'm only putting it there when there is a
difference between the two. The differences are very slight but
in the interest of being complete I've included both.

Do note that many versions of this song as it has been released
have run faster than they should, and as such to hear the correct 
speed the 40th Anniversary Remixes are what you should listen to.

Tuning: EADG

0:00
G|-----|-------------|-------------|-------------|-------------|
D|-14/-|-7---7----7/-|-5---5----5--|-----5----5--|-3---3----3/-|
A|-----|-------7-----|-------5-----|-------5-----|-------3-----|
E|-----|-------------|-------------|-3-----------|-------------|
 |
G|-----|-------------|-------------|-------------|-------------|
D|-14/-|-7---7----7/-|-5---5----5/-|-----5----5--|-3---3----3/-|
A|-----|-------7-----|-------5-----|-------5-----|-------3-----|
E|-----|-------------|-------------|-3-----------|-------------|

0:10
G|-------------|-------------|-------------|-------------|
D|-7---7----7/-|-5---5----5/-|-----5----5--|-3---3----3/-|
A|-------7-----|-------5-----|-------5-----|-------3-----|
E|-------------|-------------|-3-----------|-------------|

0:18
G|-------------|-------------|-------------|-------------|
D|-7---7----7--|-5---5----5--|-----5----5--|-3---3----3/-|
A|-------7-----|-------5-----|-------5-----|-------3-----|
E|-------------|-------------|-3-----------|-------------|

0:26
G|--------------|-------------|--------------|-------------|
D|-9---9----9---|-----7----7--|-----7----7---|-----5----5--|
A|-------9------|-------7-----|-------7------|-------5-----|
E|------------7-|-5-----------|-5----------5-|-3-----------|

0:35
G|-------------|-------------|-------------|-------------|
D|-7---7----7--|-5---5----5/-|-----5----5--|-3---3----3/-|
A|-------7-----|-------5-----|-------5-----|-------3-----|
E|-------------|-------------|-3-----------|-------------|

0:43
G|-------------|-------------|-------------|---------------|
D|-5--5--5--5--|-7--7--7--7--|-8--8--8--8/-|-3--3--3-------|
A|-------------|-------------|-------------|---------3-----|
E|-------------|-------------|-------------|-----------1-2-|

0:51
G|--------------|--------------|-------------|-------------|
D|--------------|--------------|-------------|-------------|
A|--------------|------------3-|-1--1--1--1--|-0--0--0--0--|
E|-3--3--3--3-2-|-1--1--1--1---|-------------|-------------|
 |
G|-------------|--------------|-------------|-------------|
D|-------------|--------------|-------------|-------------|
A|-------------|--------------|-1--1--1--1--|-0--0--0--0--|
E|-3--3--3--3--|-1--1--1--1/3-|-------------|-------------|

1:00
G|-------------|-------------|-------------|-------------|
D|-------------|-9---9----9/-|-7---7----7/-|-----7----7/-|
A|-0--0--0--0/-|--------9----|-------7-----|-------7-----|
E|-------------|-------------|-------------|-5-----------|

1:08
G|-------------|-------------|-------------|-------------|
D|-5---5----5/-|-9---9----9--|-7---7----7/-|-----7----7/-|
A|-------5-----|-------9-----|-------7-----|-------7-----|
E|-------------|-------------|-------------|-5-----------|

1:17
G|-------------|---------------|---------------|-------------------|
D|-5---5----5/-|-7--7--7---7---|-9--9--9---9---|-10--10--10--10-12-|
A|-------5-----|---------7---7-|---------9---9-|-------------------|
E|-------------|---------------|---------------|-------------------|

1:25
G|-----------------|--------------|-------------|-------------|
D|-----------------|--------------|-------------|-------------|
A|-10--10--10------|--------------|-------------|-------------|
E|-------------10/-|-5--5--5--5-4-|-3--3--3--3--|-8--8--8--8--|
 |
G|-----------------|-------------|-------------|-------------|
D|-----------------|-------------|-------------|-------------|
A|-10--10--10------|-------------|-------------|-------------|
E|-------------10/-|-5--5--5--5--|-3--3--3--3--|-8--8--8--8--|

1:33
G|--------------|-------------|---------------|-------------|
D|--------------|-------------|---------------|-7---7----7--|
A|--------------|-------------|---------------|-------7-----|
E|-3--3--3--3-4-|-5--5--5--5--|-5--5--5\2-2/5-|-------------|

1:42
G|-------------|-------------|-------------|-------------|
D|-5---5----5/-|-----5----5--|-3---3----3/-|-7---7----7--|
A|-------5-----|-------5-----|-------3-----|-------7-----|
E|-------------|-3-----------|-------------|-------------|

1:50
G|-------------|-------------|-------------|-------------|
D|-5---5----5--|-----5----5--|-3---3----3/-|-7---7----7--|
A|-------5-----|-------5-----|-------3-----|-------7-----|
E|-------------|-3-----------|-------------|-------------|

1:58
G|-------------|-------------|-------------|---------------|
D|-5---5----5--|-----5----5--|-3---3----3/-|-5--5--5-------|
A|-------5-----|-------5-----|-------3-----|---------5-----|
E|-------------|-3-----------|-------------|-----------3-2-|

2:06
G|-----------------|---------------|-------------|-------------|
D|-----------------|---------------|-------------|-------------|
A|---------------3-|-3--3--3---3---|-5--5--5--5--|-5--5--5--5/-|
E|-1--1--1-1-3/5---|---------3---3-|-------------|-------------|
 |
G|--------------|---------------|-------------|-------------|
D|--------------|---------------|-------------|-------------|
A|----------0-1-|-3--3--3---3---|-5--5--5--5--|-5--5--5--5/-|
E|-1--1--1------|---------3---3-|-------------|-------------|

2:15
G|-------------|-------------|-------------|-------------|
D|-9---9----9--|-7---7----7/-|-----7----7--|-5---5----5/-|
A|--------9----|-------7-----|-------7-----|-------5-----|
E|-------------|-------------|-5-----------|-------------|
 |
G|-------------|-------------|-------------|-------------|
D|-9---9----9/-|-7---7----7/-|-----7----7--|-5---5----5/-|
A|--------9----|-------7-----|-------7-----|-------5-----|
E|-------------|-------------|-5-----------|-------------|

2:23
G|-------------|-------------|-------------|-------------|
D|-9---9----9--|-7---7----7--|-----7----7--|-5---5----5/-|
A|--------9----|-------7-----|-------7-----|-------5-----|
E|-------------|-------------|-5-----------|-------------|

2:31
G|-------------|-------------|-------------|-------------|
D|-9---9----9--|-7---7----7--|-----7----7--|-5---5----5/-|
A|--------9----|-------7-----|-------7-----|-------5-----|
E|-------------|-------------|-5-----------|-------------|
 |
G|-------------|-------------|-------------|-------------|
D|-9---9----9--|-7---7----7/-|-----7----7--|-5---5----5/-|
A|--------9----|-------7-----|-------7-----|-------5-----|
E|-------------|-------------|-5-----------|-------------|

2:39
G|-------------|-------------|-------------|-------------|
D|-9---9----9--|-7---7----7/-|-----7----7--|-5---5----5/-|
A|--------9----|-------7-----|-------7-----|-------5-----|
E|-------------|-------------|-5-----------|-------------|

2:47 (Fade out)
G|-------------|--------------|-------------|---|
D|-9---9----9--|------7----7--|-----7----7--|-5-|
A|--------9----|--------7-----|-------7-----|---|
E|-------------|-7-5----------|-5-----------|---|
            
Submit corrections


        Love Street lessons Hard to play? Try these video lessons and learn fast Love Street lessons
        
↑ Back to top | Tablatures and chords for acoustic guitar and electric guitar, ukulele, drums are parodies/interpretations of the original songs. You may use it for private study, scholarship, research or language learning purposes only