» » »

Doors - Love Street Tabs

Artists:  A B C D E F G H I J K L M N O P Q R S T U V W X Y Z # 

Love Street Tabs

(ver. 3) Click to play this song!
Doors
 Rating:
4/5 (4 votes)

 Love Street lessons Tabs too difficult? Try these video lessons and learn fast
 
                Intro
  Q=116(8=s8)
  Am                 G                 Gm                  F
 4/4
  Gtr I
  Q.   E +E  E e E   Q.   E +E  Q  E   E E E E +E  E E E   Q  a E E E E E E
|-5----7-(7)---5---|-3----------3----|-3-----5-(5)---3---|-1--------1-------||
|-5----------5-----|-3----3-(3)------|---3---------------|--------1---1-----||
|-5----------------|-----------------|-----3-------3-----|----1s2-------2---||
|------------------|-----------------|-------------------|------------------||
|------------------|-----------------|-------------------|------------------||
|------------------|-----------------|-------------------|------------------||


 1st Verse
    Am            G                 Gm              F
  E Q.   E Q  E   Q.   E +E  Q  E   Q  E E E Q  E   Q.   E +E  Q  E
|---5------7----|-3----------3----|-3------5-3----|-1----------1----|
|--------5------|-3----3-(3)------|----3----------|------1-(1)------|
|--------5------|-4---------------|------3--------|-2---------------|
|---------------|-----------------|---------------|-----------------|
|---------------|-----------------|---------------|-----------------|
|---------------|-----------------|---------------|-----------------|


  Am            G                Gm                  F
  H    E Q  E   Q.   E E E E E   E E E E +E  E E E   Q.   E E E E E
|-5------7----|-3----------3---|-3-----5-(5)---3---|-1----------1---||
|------5------|----------3-----|---3---------------|----------1-----||
|-------------|------3h4-------|-----3-------3-----|------1s2-------||
|-------------|--------------0-|-------------------|----------------||
|-------------|----------------|-------------------|----------------||
|-------------|----------------|-------------------|----------------||


 Interlude
  Bm                A                     Am                  G
  E E E E E E E E   E E E a E +E  E e E   E E E E +E  E e E   Q.   E +E  Q  E
|---7-----9---7---|-5---------------5---|-5-----7-(7)---5---|-3----------3----||
|-----7-----------|---5-----------5-----|---5---------------|------3-(3)------||
|-------7---7-----|-------5s6-(6)-------|-----5-------5-----|-4---------------||
|-----------------|-----7---------------|-------------------|-----------------||
|-----------------|---------------------|-------------------|-----------------||
|-----------------|---------------------|-------------------|-----------------||


 2nd Verse
     Am          G              Gm             F
  Q  Q  E Q  E   Q  Q  E Q  E   Q  Q  E E Q    Q  Q  E E Q
|----5----5----|-3--3----3----|-3--3----3----|-1--1----1-----|
|-------5------|-------3------|-------3------|-------1-------|
|--------------|--------------|--------------|---------------|
|--------------|--------------|--------------|---------------|
|--------------|--------------|--------------|---------------|
|--------------|--------------|--------------|---------------|


  Gm                Am                Bb                Fmaj7
  Q.   E +E  E Q    Q.   E +E  E Q    Q.   E +E  Q  E   Q.    E  +E  E +E   E
|-3----------3----|-5----------5----|-6----------6----|-8------------8-(8)s10-|
|------3-(3)------|------5-(5)------|-6----6-(6)------|------10-(10)----------|
|-----------------|-----------------|-----------------|-----------------------|
|-----------------|-----------------|-----------------|-----------------------|
|-----------------|-----------------|-----------------|-----------------------|
|-----------------|-----------------|-----------------|-----------------------|


  Gm                       Fmaj7
   E  E  E  E  E  E  E E   E  E E  E E Q  E
|-10-------10-------10s8-|-8-----------8----|
|----11-------11---------|---10-------------|
|-------12-------12------|------9----9------|
|------------------------|--------10--------|
|------------------------|------------------|
|------------------------|------------------|


  Bb                   A
  E E E E +E  E E  E   Q  Q  Q  a E E
|-6-----6-(6)--------|-5-----5------5--|
|---6-----------6\---|----5------------|
|-----7-------7------|----------5s6----|
|--------------------|-----------------|
|--------------------|-----------------|
|--------------------|-----------------|


                    Piano Solo
                        Bm               A                      Am
  +E  E Q  E Q  E    Q   E E +E  E E E   E E E E +E  E E E   Q   E E E E E E
|-(5)---5----5----||----^7-9-(9)---7---|-5-----5-(5)-------|----^5-7-5--------|
|----------8------||----^7-------------|---5-----------5---|----^5-----5------|
|-----6-----------||----^7-------7-----|-----6-------6---6-|----^5-------5----|
|-----------------||-------------------|-------------------|------------------|
|-----------------||-------------------|-------------------|------------------|
|-----------------||-------------------|-------------------|------------------|


  G                          Bm             A
                                                    |-3-|
  E E a E E a E E a E E   Q   E E E E E E   E E E E E E E e E
|-3-------------------3-|----^7-9-7-------|-5-------------5---|
|---3-----3-----3-------|----^7-----7-----|---5-------5-------|
|-----3s4---3s4---3s4---|----^7-------7---|-----6---6---------|
|-----------------------|-----------------|-------7-----7-----|
|-----------------------|-----------------|-------------------|
|-----------------------|-----------------|-------------------|


                                        3rd Verse
     Am               G                     Am             Bm
  Q   E E +E  E E E   E E E E +Q   Q     Q   Q  E E Q    E Q  E E Q  E
|----^5-7-(7)-------|-3-----3-(3)-----||----^5--5------|---7------7----|
|----^5---------5---|---3-------------||----^5----5-5--|--------7------|
|----^5-------5-----|-----4-----------||----^5------5--|------7--------|
|-------------------|-----------------||---------------|---------------|
|-------------------|-----------------||---------------|---------------|
|-------------------|-----------------||---------------|---------------|


  C                  Gmaj7
  E E E E +E  E Q     Q   E  E  E  E  E   E
|-8-----8-(8)------|-12--------10-------/12-|
|---8---------8----|-----12-------12--------|
|-----9---------9--|--------11-------11-----|
|------------------|------------------------|
|------------------|------------------------|
|------------------|------------------------|


  Am                        Gmaj7
   +E   E  E  E  +Q.    E    Q   E  E  E  E  E E
|-(12)-------12-(12)---12s|=10--10-------10------|
|------13-----------------|--------12-------12---|
|---------14--------------|-----------11---------|
|-------------------------|----------------------|
|-------------------------|----------------------|
|-------------------------|----------------------|


  C                   G
  E E E E +E  E Q     E Q  E +E  E E E
|-8-----8-(8)---8\--|-3----3-(3)-------|
|---8---------8-----|---3----------3---|
|-----9-------------|---4--------4-----|
|-------------------|------------------|
|-------------------|------------------|
|-------------------|------------------|


  A
  E E E E +E  E Q    a E E a E E a E E E E
|-5-----5-(5)------|-----5-----5-----5------||
|---5-----------5--|------------------------||
|-----5-------5----|-5s6---5s6---5s6---6----||
|------------------|------------------------||
|------------------|------------------------||
|------------------|------------------------||


   4th Verse
    Am            G                Gm                  F
    H    E Q  E   Q.   E E E E E   E E E E +E  E E E   Q.   E E E E E   3x
||--5------7----|-3----------3---|-3-----5-(5)---3---|-1----------1-----||
||o------5------|----------3-----|---3---------------|----------1------o||
||--------------|------3h4-------|-----3-------3-----|------1s2---------||
||--------------|--------------0-|-------------------|------------------||
||o-------------|----------------|-------------------|-----------------o||
||--------------|----------------|-------------------|------------------||


 Interlude
  Gm                  F                   C                 D     DsDs2 Dsus4
  E E E E +E  E E E   E E E E +E  E E E   E E E E E E E E   Q  Q  E E E E
|-3-----3-(3)-------|-1-----1-(1)-------|-----0-----0-----|-2--2--0-2---3-|
|---3-----------3---|---1-----------1---|---1---1---------|-3--3--3-3---3-|
|-----3-------3-----|-----2-------2-----|-0-------0-----0-|-2--2--2-2-----|
|-------------------|-------------------|-------------2---|-0--0--0-0-----|
|-------------------|-------------------|-3---------------|-----------0---|
|-------------------|-------------------|-----------------|---------------|


                      5th Verse
      D  Dsus2/D         Bm             A                 Am
  +E  Q  E +E  E Q     E E E E E E Q    E E E E E E E E   E E E E E E E E
|-(3)-2--0-(0)-2----||---7-----9-7----|-5-----5-----5---|-5-------5---5-3--|
|-(3)-3--3-(3)-3----||-----7-------7--|---5-----5-------|---5---5---5------|
|-----2--2-(2)-2----||-------7--------|-----6-----6-----|-----5------------|
|-----0--0-(0)------||----------------|-----------------|------------------|
|--------0-(0)------||----------------|-----------------|------------------|
|----------------0--||----------------|-----------------|------------------|


  G                       Bm               A                  Am
  +E  E E E +E  E E E   E E E E E E E  E   Q  E E +E  E E E   E E E E E E E E
|-(3)-----3-(3)-------|---7-----9--------|-5----5-(5)-------|-5-----7----------|
|-----3-----------3---|-----7-------7----|--------------5---|---5-5-------5----|
|-------4-------4---0-|-------7---7---/6-|----6-------6-----|-----------5------|
|---------------------|------------------|------------------|------------------|
|---------------------|------------------|------------------|------------------|
|---------------------|------------------|------------------|------------------|


                      Outro
  G                    Bm
  E E E E +E  E E E    E E E E +E  E E E
|-3-----3-(3)-------||-7-----9-(9)-------|
|---3-----------3---||---7-----------7---|
|-----4-------4-----||-----7-------7-----|
|-------------------||-------------------|
|-------------------||-------------------|
|-------------------||-------------------|


  A                  Am
  E E Q  a E E E E   E E E E +E  E E E
|-5----------5---0-|-5-----7-(7)---5----|
|---5--------------|---5---------5------|
|-----6--5s6-------|-----5--------------|
|------------------|--------------------|
|------------------|--------------------|
|------------------|--------------------|


  G                   Bm
  E E E E +E  E E E   Q  E E +E  Q   E
|-3-----3-(3)-------|-7----------7-----|
|---3-----------3---|------7-(7)-------|
|-----4-------4-----|----7----------/6-|
|-------------------|------------------|
|-------------------|------------------|
|-------------------|------------------|


  A                                  G
  Q  E E +E  E E E   Q  Q  E Q   E   Q  Q  E Q  E
|-5----------5-----|-5--5----5-----|-3--3----3------*|
|------5-(5)-------|-------5-------|-------3--------*|
|----6-----------0-|------------/4-|----------------*|
|------------------|---------------|----------------*|
|------------------|---------------|----------------*|
|------------------|---------------|----------------*|
            
Submit corrections


        Love Street lessons Hard to play? Try these video lessons and learn fast Love Street lessons
        
↑ Back to top | Tablatures and chords for acoustic guitar and electric guitar, ukulele, drums are parodies/interpretations of the original songs. You may use it for private study, scholarship, research or language learning purposes only