» » »

Doors - Love Street Bass

Artists:  A B C D E F G H I J K L M N O P Q R S T U V W X Y Z # 

Love Street Bass

(ver. 1) Click to play this song!
Doors
 Rating:
4/5 (4 votes)

 Love Street lessons Tabs too difficult? Try these video lessons and learn fast
 
                Part 1
  G|-----|
  D|-14\-|
  A|-----|
  E|-----|

Part 2
  G|----------------------------------------|
  D|-7-7---7---5-5---5-----5---5---3-3---3--|
  A|-----7---------5---------5---------3----|
  E|--------------------3-------------------|

Part 3
  G|----------------------------------------|
  D|-9-9---9---7-7---7-----7---7---5-5---5--|
  A|-----9---------7---------7---------5----|
  E|--------------------5-------------------|

Part 4
  G|--------------------------------------------|
  D|-5-5-5-5--7-7-7-7--8-8-8-8\3-3-3-3--5-5-5-5-|
  A|--------------------------------------------|
  E|--------------------------------------------|

    ---------------------------------|
    -3-3-3-3/8-8-8-8-7-7-7-7-7-7-7-7-|
    ---------------------------------|
    ---------------------------------|

Part 5
  G|--------------------------------------------------------------|
  D|-7-7-7---7----9-9-9---9----10-10-10-10-12---------------------|
  A|-------7---7--------9---9------------------10-10-10\0-0-0-0-2-|
  E|--------------------------------------------------------------|

    -----------------------------------------|
    -----------------------------------------|
    ---------3-3-3-3---------0-0-0-0-0-0-0-0-|
    -3-3-3-3---------3-3-3-3-----------------|

Part 6
  G|-----------------2-4-5-5-5---5----7-7-7-7-7-7-7-7-|
  D|-5-5-5-5-5-3-3-3-----------5---5------------------|
  A|--------------------------------------------------|
  E|--------------------------------------------------|


Play:
 part 1: 1x
 part 2: 3x
 part 3: 1x
 part 2: 1x
 part 4: 1x
 part 3: 2x
 part 5: 1x
 part 2: 3x
 part 6: 1x
 part 3: until fade out
            
Submit corrections


        Love Street lessons Hard to play? Try these video lessons and learn fast Love Street lessons
        
↑ Back to top | Tablatures and chords for acoustic guitar and electric guitar, ukulele, drums are parodies/interpretations of the original songs. You may use it for private study, scholarship, research or language learning purposes only