» » »

Def Leppard - Excile Tabs

Artists:  A B C D E F G H I J K L M N O P Q R S T U V W X Y Z # 

Excile Tabs

(ver. 1) Click to play this song!
Def Leppard
 Rating:
4.3/5 (16 votes)

 Excile  lessons Tabs too difficult? Try these video lessons and learn fast
 
                
 Intro
|--------------------------------|--------------------------------|
|--------------------------------|--------------------------------|
|----4---2-------4---------------|--------------------------------|
|----2---0-------2---------------|--------------------------------|
|--------------------------------|--------------------------------|
|--------------------------------|--------------------------------|

|--------------------------------|--------------------------------|
|--------------------------------|--------------------------------|
|----4---2-------4---------------|------------2-------------------|
|----2---0-------2---------------|------------2-------------------|
|--------------------------------|------------0-------------------|
|--------------------------------|--------------------------------|

 "Stand up, stand up..."
|--------------------------------|--------------------------------|
|--------------------------------|------------3-------------------|
|----4---2-------4---------------|2-----------2-------------------|
|----2---0-------2---------------|2-----------0-------------------|
|--------------------------------|0-------------------------------|
|--------------------------------|--------------------------------|
 
 "Stand up."
|--------------------------------|--------------------------------|
|--------------------------------|------------3-------------------|
|----4---2-------4---------------|2-----------2-------------------|
|----2---0-------2---------------|2-----------0-------------------|
|--------------------------------|0-------------------------------|
|--------------------------------|--------------------------------|
 
 "Stand up, stand up. C'mon let's go."
|--------------------------------|--------------------------------|
|--------------------------------|------------3-------------------|
|----4---2-------4---------------|2-----------2-------------------|
|----2---0-------2---------------|2-----------0-------------------|
|--------------------------------|0-------------------------------|
|--------------------------------|--------------------------------|

                            "Never go down."
|--------------------------------|--------------------------------|
|--------------------------------|--------------------------------|
|--------------------------------|--------------------------------|
|2-------2-----------------------|--------------------------------|
|2-------2-----------------------|--------------------------------|
|0-------0-----------------------|--------------------------------|

|--------------------------------|--------------------------------|
|--------------------------------|------------3-------------------|
|----4---2-------4---------------|2-----------2-------------------|
|----2---0-------2---------------|2-----------0-------------------|
|--------------------------------|0-------------------------------|
|--------------------------------|--------------------------------|

|--------------------------------|--------------------------------|
|--------------------------------|------------3-------------------|
|----4---2-------4---------------|2-----------2-------------------|
|----2---0-------2---------------|2-----------0-------------------|
|--------------------------------|0-------------------------------|
|--------------------------------|--------------------------------|


 Verse
|--------------------------------|--------------------------------|
|--------------------------------|------------3-------------------|
|----4---2-------4---------------|2-----------2-------------------|
|----2---0-------2---------------|2-----------0-------------------|
|--------------------------------|0-------------------------------|
|--------------------------------|--------------------------------|

|--------------------------------|--------------------------------|
|--------------------------------|------------3-------------------|
|----4---2-------4---------------|2-----------2-------------------|
|----2---0-------2---------------|2-----------0-------------------|
|--------------------------------|0-------------------------------|
|--------------------------------|--------------------------------|

|--------------------------------|--------------------------------|
|--------------------------------|------------3-------------------|
|----4---2-------4---------------|2-----------2-------------------|
|----2---0-------2---------------|2-----------0-------------------|
|--------------------------------|0-------------------------------|
|--------------------------------|--------------------------------|

|--------------------------------|--------------------------------|
|--------------------------------|------------3-------------------|
|----4---2-------4---------------|2-----------2-------------------|
|----2---0-------2---------------|2-----------0-------------------|
|--------------------------------|0-------------------------------|
|--------------------------------|--------------------------------|


 Chorus
|--------------------------------|--------------------------------|
|--------------------------------|------------3-------------------|
|----4---2-------4---------------|2-----------2-------------------|
|----2---0-------2---------------|2-----------0-------------------|
|--------------------------------|0-------------------------------|
|--------------------------------|--------------------------------|

|--------------------------------|--------------------------------|
|--------------------------------|------------3-------------------|
|----4---2-------4---------------|2-----------2-------------------|
|----2---0-------2---------------|2-----------0-------------------|
|--------------------------------|0-------------------------------|
|--------------------------------|--------------------------------|

|--------------------------------|--------------------------------|
|--------------------------------|------------3-------------------|
|----4---2-------4---------------|2-----------2-------------------|
|----2---0-------2---------------|2-----------0-------------------|
|--------------------------------|0-------------------------------|
|--------------------------------|--------------------------------|

|--------------------------------|--------------------------------|
|--------------------------------|------------3-------------------|
|----4---2-------4---------------|2-----------2-------------------|
|----2---0-------2---------------|2-----------0-------------------|
|--------------------------------|0-------------------------------|
|--------------------------------|--------------------------------|

|--------------------------------|--------------------------------|
|--------------------------------|------------3-------------------|
|----4---2-------4---------------|2-----------2-------------------|
|----2---0-------2---------------|2-----------0-------------------|
|--------------------------------|0-------------------------------|
|--------------------------------|--------------------------------|

|--------------------------------|--------------------------------|
|--------------------------------|------------3-------------------|
|----4---2-------4---------------|2-----------2-------------------|
|----2---0-------2---------------|2-----------0-------------------|
|--------------------------------|0-------------------------------|
|--------------------------------|--------------------------------|

|--------------------------------|--------------------------------|
|--------------------------------|------------3-------------------|
|----4---2-------4---------------|2-----------2-------------------|
|----2---0-------2---------------|2-----------0-------------------|
|--------------------------------|0-------------------------------|
|--------------------------------|--------------------------------|

|--------------------------------|--------------------------------|
|--------------------------------|--------------------------------|
|--------------------------------|--------------------------------|
|2-------2-----------------------|--------------------------------|
|2-------2-----------------------|--------------------------------|
|0-------0-----------------------|--------------------------------|


 Verse
|--------------------------------|--------------------------------|
|--------------------------------|------------3-------------------|
|----4---2-------4---------------|2-----------2-------------------|
|----2---0-------2---------------|2-----------0-------------------|
|--------------------------------|0-------------------------------|
|--------------------------------|--------------------------------|

|--------------------------------|--------------------------------|
|--------------------------------|------------3-------------------|
|----4---2-------4---------------|2-----------2-------------------|
|----2---0-------2---------------|2-----------0-------------------|
|--------------------------------|0-------------------------------|
|--------------------------------|--------------------------------|

|--------------------------------|--------------------------------|
|--------------------------------|------------3-------------------|
|----4---2-------4---------------|2-----------2-------------------|
|----2---0-------2---------------|2-----------0-------------------|
|--------------------------------|0-------------------------------|
|--------------------------------|--------------------------------|

|--------------------------------|--------------------------------|
|--------------------------------|------------3-------------------|
|----4---2-------4---------------|2-----------2-------------------|
|----2---0-------2---------------|2-----------0-------------------|
|--------------------------------|0-------------------------------|
|--------------------------------|--------------------------------|


 Chorus
|--------------------------------|--------------------------------|
|--------------------------------|------------3-------------------|
|----4---2-------4---------------|2-----------2-------------------|
|----2---0-------2---------------|2-----------0-------------------|
|--------------------------------|0-------------------------------|
|--------------------------------|--------------------------------|

|--------------------------------|--------------------------------|
|--------------------------------|------------3-------------------|
|----4---2-------4---------------|2-----------2-------------------|
|----2---0-------2---------------|2-----------0-------------------|
|--------------------------------|0-------------------------------|
|--------------------------------|--------------------------------|

|--------------------------------|--------------------------------|
|--------------------------------|------------3-------------------|
|----4---2-------4---------------|2-----------2-------------------|
|----2---0-------2---------------|2-----------0-------------------|
|--------------------------------|0-------------------------------|
|--------------------------------|--------------------------------|

|--------------------------------|--------------------------------|
|--------------------------------|------------3-------------------|
|----4---2-------4---------------|2-----------2-------------------|
|----2---0-------2---------------|2-----------0-------------------|
|--------------------------------|0-------------------------------|
|--------------------------------|--------------------------------|

|--------------------------------|--------------------------------|
|--------------------------------|------------3-------------------|
|----4---2-------4---------------|2-----------2-------------------|
|----2---0-------2---------------|2-----------0-------------------|
|--------------------------------|0-------------------------------|
|--------------------------------|--------------------------------|

|--------------------------------|--------------------------------|
|--------------------------------|------------3-------------------|
|----4---2-------4---------------|2-----------2-------------------|
|----2---0-------2---------------|2-----------0-------------------|
|--------------------------------|0-------------------------------|
|--------------------------------|--------------------------------|

|--------------------------------|--------------------------------|
|--------------------------------|------------3-------------------|
|----4---2-------4---------------|2-----------2-------------------|
|----2---0-------2---------------|2-----------0-------------------|
|--------------------------------|0-------------------------------|
|--------------------------------|--------------------------------|

|--------------------------------|--------------------------------|
|--------------------------------|--------------------------------|
|--------------------------------|--------------------------------|
|2-------2-----------------------|--------------------------------|
|2-------2-----------------------|--------------------------------|
|0-------0-----------------------|--------------------------------|


Solo
|[12]----------------------------|[19]----------------------------|
|--------------------------------|--------------------------------|
|--------------------------------|--------------------------------|
|--------------------------------|--------------------------------|
|--------------------------------|--------------------------------|
|--------------------------------|--------------------------------|

|[12]----------------------------|--------------------------------|
|--------------------------------|[12]----------------------------|
|--------------------------------|--------------------------------|
|--------------------------------|--------------------------------|
|--------------------------------|--------------------------------|
|--------------------------------|--------------------------------|

|[12]----------------------------|[19]----------------------------|
|--------------------------------|--------------------------------|
|--------------------------------|--------------------------------|
|--------------------------------|--------------------------------|
|--------------------------------|--------------------------------|
|--------------------------------|--------------------------------|

|[12]----------------------------|--------------------------------|
|--------------------------------|[12]----------------------------|
|--------------------------------|--------------------------------|
|--------------------------------|--------------------------------|
|--------------------------------|--------------------------------|
|--------------------------------|--------------------------------|

|--------------------------------|--------------------------------|
|5---5---3-----------------------|3-------3---2-------------------|
|4---4---2-----------------------|2-------2---2-------------------|
|2---2---0-----------------------|2-------2---2-------------------|
|--------------------------------|0-------0---0-------------------|
|------------------------0-h-3---|------------------------0-h-3---|

|--------------------------------|--------------------------------|
|5---5---3-----------------------|3-------3---2-------------------|
|4---4---2-----------------------|2-------2---2-------------------|
|2---2---0-----------------------|2-------2---2-------------------|
|--------------------------------|0-------0---0-------------------|
|------------------------0-h-3---|------------------------0-h-3---|

|--------------------------------|--------------------------------|
|5---5---3-----------------------|3-------3---2-------------------|
|4---4---2-----------------------|2-------2---2-------------------|
|2---2---0-----------------------|2-------2---2-------------------|
|--------------------------------|0-------0---0-------------------|
|------------------------0-h-3---|------------------------0-h-3---|

|--------------------------------|--------------------------------|
|5---5---3-----------------------|3-------3---2-------------------|
|4---4---2-----------------------|2-------2---2-------------------|
|2---2---0-----------------------|2-------2---2-------------------|
|--------------------------------|0-------0---0-------------------|
|------------------------0-h-3---|--------------------------------|

|--------------------------------|--------------------------------|
|5-----------5-----------5-------|----5-----------5-----------5---|
|----4-----------4-----------4---|--------4-----------4-----------|
|--------2-----------2-----------|2-----------2-----------2-------|
|--------------------------------|--------------------------------|
|--------------------------------|--------------------------------|

|--------------------------------|--------------------------------|
|--------5-----------5-----------|5-----------5-----------5-------|
|4-----------4-----------4-------|----4-----------4-----------4---|
|----2-----------2-----------2---|--------2-----------2-----------|
|--------------------------------|--------------------------------|
|--------------------------------|--------------------------------|

|--------------------------------|--------------------------------|
|----5-----------5-----------5---|--------5-----------5-----------|
|--------4-----------4-----------|4-----------4-----------4-------|
|2-----------2-----------2-------|----2-----------2-----------2---|
|--------------------------------|--------------------------------|
|--------------------------------|--------------------------------|

|--------------------------------|--------------------------------|
|--------------------------------|--------------------------------|
|--------------------------------|----2-------2-------2-------2---|
|2-------2-----------------------|----2-------2-------2-------2---|
|2-------2-----------------------|----0-------0-------0-------0---|
|0-------0-----------------------|--------------------------------|

 Outro
|--------------------------------|--------------------------------|
|--------------------------------|------------3-------------------|
|----4---2-------4---------------|2-----------2-------------------|
|----2---0-------2---------------|2-----------0-------------------|
|--------------------------------|0-------------------------------|
|--------------------------------|--------------------------------|

|--------------------------------|--------------------------------|
|--------------------------------|------------3-------------------|
|----4---2-------4---------------|2-----------2-------------------|
|----2---0-------2---------------|2-----------0-------------------|
|--------------------------------|0-------------------------------|
|--------------------------------|--------------------------------|

|--------------------------------|--------------------------------|
|--------------------------------|------------3-------------------|
|----4---2-------4---------------|2-----------2-------------------|
|----2---0-------2---------------|2-----------0-------------------|
|--------------------------------|0-------------------------------|
|--------------------------------|--------------------------------|

|--------------------------------|--------------------------------|
|--------------------------------|------------3-------------------|
|----4---2-------4---------------|2-----------2-------------------|
|----2---0-------2---------------|2-----------0-------------------|
|--------------------------------|0-------------------------------|
|--------------------------------|--------------------------------|

|--------------------------------|--------------------------------|
|--------------------------------|------------3-------------------|
|----4---2-------4---------------|2-----------2-------------------|
|----2---0-------2---------------|2-----------0-------------------|
|--------------------------------|0-------------------------------|
|--------------------------------|--------------------------------|

|--------------------------------|--------------------------------|
|--------------------------------|------------3-------------------|
|----4---2-------4---------------|2-----------2-------------------|
|----2---0-------2---------------|2-----------0-------------------|
|--------------------------------|0-------------------------------|
|--------------------------------|--------------------------------|

|--------------------------------|--------------------------------|
|--------------------------------|------------3-------------------|
|----4---2-------4---------------|2-----------2-------------------|
|----2---0-------2---------------|2-----------0-------------------|
|--------------------------------|0-------------------------------|
|--------------------------------|--------------------------------|

|--------------------------------|--------------------------------|
|--------------------------------|--------------------------------|
|--------------------------------|--------------------------------|
|--------------------------------|--------------------------------|
|--------------------------------|--------------------------------|
|--------------------------------|--------------------------------|

|--------------------------------|0---0---0-----------------------|
|5---5---5---3---3---3-----------|0---0---0-----------------------|
|4---4---4---4---2---2---2---2---|x---x---x-----------------------|
|2---2---2---0---0---0---2---2---|2---2---2-----------------------|
|------------------------0---0---|2---2---2-----------------------|
|--------------------------------|0---0---0-----------------------|
            
Submit corrections


        Excile  lessons Hard to play? Try these video lessons and learn fast Excile  lessons
        
↑ Back to top | Tablatures and chords for acoustic guitar and electric guitar, ukulele, drums are parodies/interpretations of the original songs. You may use it for private study, scholarship, research or language learning purposes only