» » »

Def Leppard - Dangerous Tabs

Artists:  A B C D E F G H I J K L M N O P Q R S T U V W X Y Z # 

Dangerous Tabs

(ver. 1) Click to play this song!
Def Leppard
 Rating:
1.8/5 (30 votes)

 Dangerous  lessons Tabs too difficult? Try these video lessons and learn fast
 
                  Intro                                                   1.
||------------------|-----------------|-----------------|------------------||
||o---4-5-----4-5---|---5-5-------5---|---4-5-----4-5---|-----5-------5---o||
||--4-----4-6-----4-|-6-----4---4-----|-4-----4-6-----4-|---4-------4---4--||
||------------------|---------7-----7-|-----------------|-7-----7-6--------||
||o-----------------|-----------------|-----------------|-----------------o||
||------------------|-----------------|-----------------|------------------||


  2.
|-----------------|-----------------|
|-----5-----5---5-|-----5-----5---5-|
|---4-----4---4---|---4-----4---4---|
|-7-----7---------|-7-----7---------|
|-----------------|-----------------|
|-----------------|-----------------|

 Main Riff
|-----------------|----------------|-----------------|-------------------|
|---4-4-4-4-4-4-5-|-(5)-5----------|---4-4-4-4-4-4-5-|-(5)-5--9-10-10-9--|
|-4-4-4-4-4-6-4-4-|-(4)-4--2--2--4-|-4-4-4-4-4-6-4-4-|-(4)-4--9--9--9-9--|
|-4---------------|--------2--2--4-|-4---------------|-------------------|
|-2---------------|--------0--0--2-|-2---------------|-------------------|
|-----------------|----------------|-----------------|-------------------|


   Verse
||------------------|---------------|-------------------|-----------------||
||o-----------------|---------------|-------------------|----------------o||
||--4-4-------------|-----4-------4-|-(4)-4-------------|-----4-------4---||
||--4-4-4-4-4-4-4-4-|-4-4-4-2--2--4-|-(4)-4-4-4-4-4-4-4-|---2---2---2-4---||
||o-2-2-2-2-2-2-2-2-|-2-2-2-2--2--2-|-(2)-2-2-2-2-2-2-2-|-0-----2---2-2--o||
||------------------|-------0--0----|-------------------|-------0---0-----||


 Pre-Chorus
|-----------------|----------------|-----------------|-----------------|
|-----------------|----------------|-----------------|-----------------|
|-2-2-2-2-2-2-2-5-|-5-5-5-5-5-7--2-|-2-2-2-2-2-2-2-5-|-5-5-5-5-5-4-3-2-|
|-2-2-2-2-2-2-2-5-|-5-5-5-5-5-7--2-|-2-2-2-2-2-2-2-5-|-5-5-5-5-5-4-3-2-|
|-0-0-0-0-0-0-0-3-|-3-3-3-3-3-5--0-|-0-0-0-0-0-0-0-3-|-3-3-3-3-3-2-1-0-|
|-----------------|----------------|-----------------|-----------------|


|-----------------|----------------|------------------|-----------------|
|-----------------|----------------|------------------|-----------------|
|-2-2-2-2-2-2-2-5-|-5-5-5-5-5-7----|-------2------2---|-------2------2--|
|-2-2-2-2-2-2-2-5-|-5-5-5-5-5-7----|-----2------2-----|-----2------2----|
|-0-0-0-0-0-0-0-3-|-3-3-3-3-3-5--0-|-(0)--------------|-----------------|
|-----------------|----------------|---------3------2-|-(2)-----0-------|


 Chorus
  Gtr I
|-----------------|-----------------|-----------------|-----------------|
|---4-5-----4-5---|---5-5-------5---|---4-5-----4-5---|-----5-------5---|
|-4-----4-6-----4-|-6-----4---4-----|-4-----4-6-----4-|---4-------4---4-|
|-----------------|---------7-----7-|-----------------|-7-----7-6-------|
|-----------------|-----------------|-----------------|-----------------|
|-----------------|-----------------|-----------------|-----------------|
|
| Gtr II
|-----------------|-----------------|-----------------|-----------------|
|-----------------|-----------------|-----------------|-----------------|
|-4-4-4-6-6-6-6-6-|-6-6-6-2-2-2-2-2-|-4-4-4-6-6-6-6-2-|-2-2-2-----------|
|-4-4-4-6-6-6-6-6-|-6-6-6-2-2-2-2-2-|-4-4-4-6-6-6-6-2-|-2-2-2-2-2-2-2-2-|
|-2-2-2-4-4-4-4-4-|-4-4-4-0-0-0-0-0-|-2-2-2-4-4-4-4-0-|-0-0-0-2-2-2-2-2-|
|-----------------|-----------------|-----------------|-------0-0-0-0-0-|


|-----------------|-----------------|-----------------|-----------------|-----------------|
|---4-5-----4-5---|---5-5-------5---|---4-5-----4-5---|-----5-----5---5-|-----5-----5---5-|
|-4-----4-6-----4-|-6-----4---4-----|-4-----4-6-----4-|---4-----4---4---|---4-----4---4---|
|-----------------|---------7-----7-|-----------------|-7-----7---------|-7-----7---------|
|-----------------|-----------------|-----------------|-----------------|-----------------|
|-----------------|-----------------|-----------------|-----------------|-----------------|
|
|-----------------|-----------------|-----------------|-----------------|-----------------|
|-----------------|-----------------|-----------------|-----------------|-----------------|
|-4-4-4-6-6-6-6-6-|-6-6-6-2-2-2-2-2-|-4-4-4-6-6-6-6-2-|-2-2-2-2-2-2-2-2-|-2-2-2-2-2-2-2-2-|
|-4-4-4-6-6-6-6-6-|-6-6-6-2-2-2-2-2-|-4-4-4-6-6-6-6-2-|-2-2-2-2-2-2-2-2-|-2-2-2-2-2-2-2-2-|
|-2-2-2-4-4-4-4-4-|-4-4-4-0-0-0-0-0-|-2-2-2-4-4-4-4-0-|-0-0-0-0-0-0-0-0-|-0-0-0-0-0-0-0-0-|
|-----------------|-----------------|-----------------|-----------------|-----------------|


 Solo
|-----------------|------------|----------------------------|----------------------|
|-----------------|---------14-|-14----14----14-------16----|-(16)-16-17-19b21~~~--|
|-6-6-6-6-6-4-4-6-|-8-9-8-6-16-|-16b18-16b18-16b18~~~-18b20-|-(18)-----------------|
|-----------------|------------|----------------------------|----------------------|
|-----------------|------------|----------------------------|----------------------|
|-----------------|------------|----------------------------|----------------------|


|---0------0----|---0---------------|--------------------------------------11----------|-12b14~~~|
|---------------|-------------------|--11----------12----------14----------------------|---------|
|-6---4--8---6--|-9---8--/11~~~-11--|-----11-11-11----11-11-11----11-11-11----11-11-11-|---------|
|---------------|-------------------|--------------------------------------------------|---------|
|---------------|-------------------|--------------------------------------------------|---------|
|---------------|-------------------|--------------------------------------------------|---------|
            
Submit corrections


        Dangerous  lessons Hard to play? Try these video lessons and learn fast Dangerous  lessons
        
↑ Back to top | Tablatures and chords for acoustic guitar and electric guitar, ukulele, drums are parodies/interpretations of the original songs. You may use it for private study, scholarship, research or language learning purposes only