» » »

Def Leppard - 21St Century Sha La La La Girl Tabs

Artists:  A B C D E F G H I J K L M N O P Q R S T U V W X Y Z # 

21St Century Sha La La La Girl Tabs

(ver. 1) Click to play this song!
Def Leppard
 Rating:
4.3/5 (20 votes)

 21St Century Sha La La La Girl  lessons Tabs too difficult? Try these video lessons and learn fast
 
                [Intro]
Guitar 1   Guitar 2 
e|--------|-------------------------------------|
B|-3------|-3b-x-3------------------------------|
G|-2-x-8--|-------------------------------------|
D|-0------|-------------------------------------|
A|--------|-------------------------------------|
E|--------|-------------------------------------|

e|------------------------------------------------------------|
B|------------------------------------------------------------|
G|------------------------------------------------------------|
D|-0-0-12-0-0-10-0-0-16-0-0-12-0-0-10-0-0-0-12-0-0-10-0-0-12b-|
A|------------------------------------------------------------|
E|------------------------------------------------------------|

e|-----------------------------------------------------------|
B|-------------------------------------------------------3-5~|
G|-------------------------------------------------------2---|
D|-0-0-12-0-0-10-0-0-16-0-0-12-0-0-10-0-10-0-0-10-0-0-3b-0---|
A|-----------------------------------------------------------|
E|-----------------------------------------------------------|

[Verse]
e|--------------------------------------------------------|
B|--------------------------------------------------------|
G|-----5----------------------5---------------------------|
D|-5---5------------------5---5---------------------------|
A|-5---3------------------5---3---------------------------|
E|-3----------------------3-------------------------------|

[Pre-Chorus]
  x4
e|--------------------------------------|
B|--------------------------------------|
G|-6-------7-6-5-4-5--------------------|
D|-6---5---7-6-5-4-5--------------------|
A|-4---5---5-4-3-2-3--------------------|
E|-----3--------------------------------|

[Chorus]
  x4
e|-------------------------------------------------------------------------|
B|-----------------------------6-6-6-6-------------------------------------|
G|-3h5-5-5-3h5-5-5-3h5-5-5-5---5-5-5-5-3-3-3-4-----------------------------|
D|-3h5-5-5-3h5-5-5-3h5-5-5-5---3-3-3-3-3-3-3-4-----------------------------|
A|-3---3-3-3---3-3-3---3-3-3-----------1-1-1-2-----------------------------|
E|-------------------------------------------------------------------------|

[Bridge]                                   Guitar 1 x3     Guitar 2 x3  
e|---------------------------------|-------|------------|------------------------------|
B|---------------------------------|-------|------------|------------------------------|
G|----------------------------7-6--|-x--4--|------------|------7-6---------------------|
D|-----2-----2----------------7-7--|-------|------------|------7-7---------------------|
A|---------------------------------|-------|------------|------------------------------|
E|-3h4---3h4---3h4-4p0-0-0-0-------|-------|-0-0-0-0--0-|------------------------------|

[Solo]
Trem pick
e|--------|------------14--------------------------------------------------|
B|-13b----|-12AH----------15-13b--10-12-12br10-10--------------------------|
G|--------|----------------------------------------------------------------|
D|--------|----------------------------------------------------------------|
A|--------|----------------------------------------------------------------|
E|--------|----------------------------------------------------------------|

e|-14--15--17--19b-------------------------------------------------------------------------|
B|-17b-18b-20b------12~-10-10------------------------------------15----12-13br-------------|
G|-------------------------------5+----------5+5+5+5+---------14----14---------------------|
D|---------------------------------5+5+5+5+5+--------5+5+5+--------------------------------|
A|-----------------------------------------------------------------------------------------|
E|-----------------------------------------------------------------------------------------|

[Outro]
e|--------------------------------------------------------|
B|-----------------------------8-8-8-8--------------------|
G|-5h7-7-7-5h7-7-7-5h7-7-7-7---7-7-7-7-5-5-5-6------------|
D|-5h7-7-7-5h7-7-7-5h7-7-7-7---5-5-5-5-5-5-5-6------------|
A|-5---5-5-5---5-5-5---5-5-5-----------3-3-3-4------------|
E|--------------------------------------------------------|            
Submit corrections


        21St Century Sha La La La Girl  lessons Hard to play? Try these video lessons and learn fast 21St Century Sha La La La Girl  lessons
        
↑ Back to top | Tablatures and chords for acoustic guitar and electric guitar, ukulele, drums are parodies/interpretations of the original songs. You may use it for private study, scholarship, research or language learning purposes only