Home » C » Converge »

Converge - Jane Doe Tabs

Artists:  A B C D E F G H I J K L M N O P Q R S T U V W X Y Z # 

Jane Doe Tabs

(ver. 1) Click to play this song!
Converge
Converge - Jane Doe
i guarrentee this is as accurate as your gonna find because everyone sucks as tabbing. 
guitar is tuned to drop C.

D  :-----------------|------------------|---------------------|
A  :-----------------|------------------|---------------------|
F  :--------6--------|------6-----------|-----6------7--------|
C  :0----------------|0-------------5---|0--------------------|
G  :0----/5----------|0--/5-------------|0-/5---5-/6----------|
C  :0----------------|0-------0-3-4-----|0--------------------|

D  :--------------------|----------------|----------------------------|
A  :--------------------|----------------|----------------------------|
F  :--------------------|--------8-------|-----------------3-3-3-3-3-3|
C  :--12------7b--------|5-------8-------|5---5-0-0-0-0-0--2-2-2-2-2-2|
G  :--------------------|5-------6-------|5---5-0-0-0-0-0--1-1-1-1-1-1|
C  :8----8-\4-----------|5---------------|5---5-0-0-0-0-0-------------|
                           *strum*              p.m.------|

D  :-------------------------|--------------------|---------------------|
A  :-------------------------|--------------------|---------------------|
F  :------7--7----------8-7--|---------10-5-------|---3-3-3----3-3-3----|
C  :0--0--7--7--0--3--5-7-7--|0--3--5--9--4-------|2--2-2-2-2--2-2-2----|
G  :0--0--5--5--0--3--5-6-5--|0--3--5--8--3-------|2--1-1-1-2--1-1-1----|
C  :0--0--------0--3--5------|0--3--5-------------|2--------2-----------|
  p.m.--|      p.m.
D  :----------------|
A  :----------------|
F  :----------------|
C  :2-3-------------|
G  :2-3-------------|
C  :2-3-------------|


the greatest ending ever

D  :---------------------------|-----------------------------|
A  :------3-----------3--------|--------------------6-p3-3---|
F  :----3---3-------3---3------|---------3---------------5b--|
C  :--0-------0---0-------0----|-----7-----7---7-p5----------|
G  :1-----------1--------------|---5---5-----5---------------|
C  :---------------------------|-4---------------------------|

D  :---------------------|--------------------|----------------|
A  :--------3------------|--------------------|----------------|
F  :r5-p3-3-3-3-3-3------|--<5>----<4>--------|----------------|
C  :----------7-3-3-h5-0-|x-<5>-x--<4>--------|5-5-5-5-5-5-----|
G  :-------------------0-|x-----x-------------|5-5-5-5-5-5-----|
C  :-------------------0-|x-----x-------------|5-5-5-5-5-5-----|

D  :----------------|
A  :----------------|
F  :----------------|
C  :1-1-1-1-1-1-----|
G  :1-1-1-1-1-1-----|
C  :1-1-1-1-1-1-----|
            
Submit corrections

↑ Back to top | Tablatures and chords for acoustic guitar and electric guitar, ukulele, drums are parodies/interpretations of the original songs. You may use it for private study, scholarship, research or language learning purposes only