Home » C » Converge »

Converge - Distance And Meaning Tabs

Artists:  A B C D E F G H I J K L M N O P Q R S T U V W X Y Z # 

Distance And Meaning Tabs

(ver. 1) Click to play this song!
Converge
-------------------------------------------------------------------------------
                             Distance and Meaning- Converge
-------------------------------------------------------------------------------


Tuning:C G C F Ab C  it´s how kurt plays on jane doe
Main riff
e|22-22---00-----------------------------------------------------------------|
B|11-11-0-00-----------------0-----------------------------------------------|
G|44-44-4/77-----3 times ----7~----------------------------------------------|
D|---------------------------------------------------------------------------|
A|---------------------------------------------------------------------------|
E|---------------------------------------------------------------------------|

e|22-22----00------------------|
B|11-11-0--00---------------0--|
G|44-44-4/-77—--3 times--------|     7+ several artificial harmonics at different 
with your right hand
D|-----------------------------|
A|-----------------------------|
E|-----------------------------|

e|22-22---00-------------------------------------------------------------------|
B|11-11-0-00-----------0-------------------------------------------------------|
G|44-44-4/77—3 times   7~------------------------------------------------------|
D|-----------------------------------------------------------------------------|
A|-----------------------------------------------------------------------------|
E|-----------------------------------------------------------------------------|

e|22-22---00-------------------------------------------------------------------|
B|11-11-0-00-------------------------------------------------------------------|
G|44-44-4/77—3 times  7/20-----------------------------------------------------|
D|-----------------------------------------------------------------------------|
A|-----------------------------------------------------------------------------|
E|-----------------------------------------------------------------------------|

Vers
e|---------------------------------------------------------------------------|
B|---------------------------------------------------------------------------|
G|4444444/7777777/4----3 times then -----------------------------------------|
D|-----------------------------------788--344--566---------------------------|2 times
A|-----------------------------------566--122--566---------------------------|
E|---------------------------------------------566---------------------------|

Pre-chorus

e|---------------------------------------------------------------------------|
B|-------0---5--5--------0---5~----------------------------------------------|
G|44444444/777-77-/4444444/777~----------------------------------------------|
D|---------------------------------------------------------------------------|
A|---------------------------------------------------------------------------|
E|---------------------------------------------------------------------------|
pppppppp pp p    ppppppp pp


chorus 2 times
e|---------------------------------------------------------------------------|
B|---------------------------------------------------------------------------|
G|77777777777777773333333322 22 22-----5+------------------------------------|
D|77777777888888883333333333 33 33-------------------------------------------|
A|55555555666666661111111100-00-00-------------------------------------------|
E|---------------------------------------------------------------------------|


Main riff
Vers
Pre-chorus
Chorus 4 times
Bridge 2 times

e|--------------0-~------------------------------------------------------------|
B|--------------0~-------------------------------------------------------------|
G|--------------4~-------------------------------------------------------------|
D|------------------------------------0~---------------------------------------|
A|---3-6-0---3-----------3---3-6-3----0~---------------------------------------|
E|-4-------4---------------4-------4  3----------------------------------------|

Break 4 times

e|-----------------------------------------------------------------------------|
B|------------------------00—-8/12121212121212---------------------------------|
G|------------------------44—--------------------------------------------------|
D|----------------------------5/9-9-9-9-9-9-9----------------------------------|
A|-450-450-88-450-450-88-------------------------------------------------------|
E|-450-450-88-450-450-88-------------------------------------------------------|


Outro several times
e|--9 9 9 9 9 9 9------------9 9 9 9 9 9 9 9 ----------------------------------|
B|8/12121212121212-xxxxxxxxx/1212121212121212----------------------------------|
G|--9 9 9 9 9 9 9------------9-9-9-9-9-9-9-9-----------------------------------|
D|5/9-9-9-9-9-9-9—xxxxxxxxx/-9-9-9-9-9-9-9-9-----------------------------------|
A|-----------------------------------------------------------------------------|
E|-----------------------------------------------------------------------------|

Second guitar plays bridge
This is my second (improved) version of this song. It´s almost perfect but it is a very 
song to tab out. Please rate....


| /  slide up
| \  slide down
| h  hammer-on
| po pull-off
| ~  vibrato
| +  harmonic
|p mute note
===============================================================================
            
Submit corrections

↑ Back to top | Tablatures and chords for acoustic guitar and electric guitar, ukulele, drums are parodies/interpretations of the original songs. You may use it for private study, scholarship, research or language learning purposes only