» » »

Converge - Jane Doe Bass

Artists:  A B C D E F G H I J K L M N O P Q R S T U V W X Y Z # 

Jane Doe Bass

(ver. 1) Click to play this song!
Converge
 Rating:
4/5 (4 votes)


 Jane Doe lessons Tabs too difficult? Try these video lessons and learn fast
 
                Label: Equal Vision
Bassist: Nate Newton

h= hammer on
~= Let Ring
/= Slide Up
= Slide Down
b= Bend That Note
*= Bass Overdrive On
^^= Double Digit

Verse
F|---------------------------------------------------|
C|---------------------------------------------------|
G|---------------------------11----------------------| x3
C|-0~---11b---0~---11b-111213---0~---11b---8~---4~---|
^^ ^^ ^^^^^^^^ ^^

F|--------------------------------------------------------|
C|--------------------------------------------------------|
G|------------------------------11------------------------|
C|-0~---11b-11--0~---11b-111213---0~---11b---8~---4~------|
^^ ^^ ^^ ^^^^^^^^ ^^
Chorus x2
F|-----------------------------------------------------|
C|-----------------------------------------------------|
G|----------------------6666--------------------666666-|
C|-555555555555-55555555-----555555555555-000000-------|

Verse
Chorus x4

Post-Chorus x2
F|-------------------------------------------------------------------|
C|-------------------------------------------------------------------|
G|---5~-----6-5----6--------------5~-----6-5----6--------------------|
C|-00----035----035-8822-22-2-3-00----035----035-8822-22-2/333-3/555-|

Bridge 1
F|---------------------------------------------------|
C|---------------------------------------------------|
G|-----------6~--------------------------------------|
C|-5~------------------8~--------3~--------0~--------|

F|---------------------------------------------------------------|
C|---------------------------------------------------------------|
G|-3h5-------------------------------------------------666666----|
C|-------0~-0~-0~-0~-0~-0~-0~-0~-0~-0~-0~-0~-0~-0~-0~-0----------|
* * * * * * * * * * * * * * * *

Verse
Chorus x4
Post-Chorus x2

Bridge 2
F|-----------------------------------------------------------------|
C|-----------------------------------------------------------------|
G|-----------6~-----------------------------------------------3h55-|
C|-5~------------------8~--------3~--------0~--------------5h7-----|
Listen closely for hammer

F|-------------------------------------------------------------|
C|-------------------------------------------------------------|
G|-------------------------------------------------------------|
C|-0-00-00-00-00-00-00-00-00-00-00-00-00-00-00-00------0~------|

F|----------------------------------------------------------------------------|
C|----------------------------------------------------------------------------|
G|----------------------------------------------------------------------------|
C|-0~------0~------0~------0~------0~--------0~---------0~----------0~--------|

Pause

F|-------------------------------------------------|
C|-------------------------------------------------|
G|-------------------------------------------------|
C|-8~----------4~----------8~----------0~----------|
Bass Comes In At 7:28

Outro
F|----------------------------------------------------------------|
C|---------------------------------8------------------------------|
G|-----888-777-101010---------------------8888-777-101010---------| x3
C|-888----------------444-444-444-4---888-----------------0~------|
^^^^^^ ^^^^^^

F|-------------------------------------------------|
C|-------------------------------------------------|
G|-------------------------------------------------| x6
C|-5-5-5-5-5-5-5-5-5-5-5-5-1-1-1-1-1-1-1-1-1-1-1-1-|

F|-----------------------------------------------------|
C|-----------------------------------------------------|
G|-----------------------------------------------------| x7
C|-555555555555-555555555555-111111111111-111111111111-|

Thank you. Please rate. Listen VERY CLOSELY for hammer ons.

Reply With Quote
            
Submit corrections



        Jane Doe lessons Hard to play? Try these video lessons and learn fast Jane Doe lessons
        
↑ Back to top | Tablatures and chords for acoustic guitar and electric guitar, ukulele, drums are parodies/interpretations of the original songs. You may use it for private study, scholarship, research or language learning purposes only