Home » C » Converge »

Converge - Effigy Tabs

Artists:  A B C D E F G H I J K L M N O P Q R S T U V W X Y Z # 

Effigy Tabs

(ver. 1) Click to play this song!
Converge
-----------------------------------------------------------------
-----------------------------------------------------------------
Tuning: Drop C

Intro
Rhythm Guitar
D|-----------------------------|
A|-----------------------------|
F|-----------------------------|
c|----9------------9-----------|
G|-11------11---11-------------|
C|------13----9------9-8-6-5-5-|

Section 1
Lead
D|-------------------------------|
A|-------------------------------|
F|---------------------/16-15-15-|
c|-------------------------------|
G|-------------------------------|
C|-------------------------------|

Rhythm
D|-----------------------------|
A|-----------------------------|
F|-----------------------------|
c|----9------------9-----------|
G|-11------11---11-------6-5-5-|
C|------13----9------9-8-6-5-5-|

Lead
D|----------------19-------------tr--------|
A|-----------18~-----15-16-18~--21(18)-21\-|
F|------16~--------------------------------|
c|-18~-------------------------------------|
G|-----------------------------------------|
C|-----------------------------------------|

NOTE: Rather than tabbing out the same rhythm riff over and over again, just repeat
the above rhythm line while the lead part is playing, occasionally just playing the
|-6-5-5-| power chords. Listen to the recording to know where.

Lead
D|----------------19------------16h19p16p13-16h19p16p13-16h19p16p13-16\-|
A|-----------18~-----15-16-18~------------------------------------------|
F|------16~-------------------------------------------------------------|
c|-18~------------------------------------------------------------------|
G|----------------------------------------------------------------------|
C|----------------------------------------------------------------------|

D|----------------19~--19p16p13h16-(x6)-21b22-|
A|-----------18~------------------------------|
F|------16~-----------------------------------|
c|-18~----------------------------------------|
G|--------------------------------------------|
C|--------------------------------------------|

D|----------19----------------19~--19p16p13h16-19p16p13h16-19p16p13h16-19p16p13h16-19b21-|
A|-------18----18----------18---------------------------------------------------------TP-|
F|----16----------16----16---------------------------------------------------------------|
c|-18----------------18------------------------------------------------------------------|
G|---------------------------------------------------------------------------------------|
C|---------------------------------------------------------------------------------------|
Section 2
Lead & Rhythm
D|-------------------------------------|
A|-------------------------------------|
F|-------------------------------------|
c|----14-------------14----------------|x4
G|-16-------16----16-------------------|
C|-------18----14-------14-13-11-10-10-|

Section 3
Lead
D|-------------------------------|
A|-------------------------------|
F|---------------------/16-15-15-|
c|-------------------------------|
G|-------------------------------|
C|-------------------------------|

Rhythm
D|-----------------------------|
A|-----------------------------|
F|-----------------------------|
c|----9------------9-----------|
G|-11------11---11-------6-5-5-|
C|------13----9------9-8-6-5-5-|

NOTE: Rhythm is the same as in Section 1

Lead
D|----------------19-------------tr-----tr-----tr--------|
A|-----------18~-----15-16-18~--19(16)-20(17)-21(18)-22\-|
F|------16~----------------------------------------------|
c|-18~---------------------------------------------------|
G|-------------------------------------------------------|
C|-------------------------------------------------------|

D|------------------------19------------18(15)-19(16)-20(17)-21\-|
A|---------------18----18----15-16-18~----tr-----tr-----tr-------|
F|------16----16----16-------------------------------------------|
c|-18~-----18----------------------------------------------------|
G|---------------------------------------------------------------|
C|---------------------------------------------------------------|

D|------------------19~--19p16p13h16-(x6)-21b22-|
A|-----------18b19------------------------------|
F|------16~-------------------------------------|
c|-18~------------------------------------------|
G|----------------------------------------------|
C|----------------------------------------------|

D|----------------/19\-----------------19h22p19p16-19h22p19p16-19h22p19p16-19h22p19p16-22b24-|
A|-----------/18\------/18\------/16~-----------------------------------------------------TP-|
F|------/16\----------------/16\-------------------------------------------------------------|
c|-/18\--------------------------------------------------------------------------------------|
G|-------------------------------------------------------------------------------------------|
C|-------------------------------------------------------------------------------------------|

Repeat Section 2

Section 4
Rhythm continues to play Section 2

Lead
This part is played with fast tremolo picking (2 hits per note below)
D|-------------------------------------18-17-18-20-21-15-21-15-21-15-21-15-21-15-21-15-21b23r21-|
A|-------------17-16-17-19-20-19-20-22----------------------------------------------------------|
F|-18-17-18-20----------------------------------------------------------------------------------|
c|----------------------------------------------------------------------------------------------|
G|----------------------------------------------------------------------------------------------|
C|----------------------------------------------------------------------------------------------|

D|-------------------------------------18-17-18-20-21-15-21-15-21-15-21-15-21-15-21-15-22b24-|
A|-------------17-16-17-19-20-19-20-22----------------------------------------------------TP-|
F|-18-17-18-20-------------------------------------------------------------------------------|
c|-------------------------------------------------------------------------------------------|
G|-------------------------------------------------------------------------------------------|
C|-------------------------------------------------------------------------------------------|

Outro

Lead
D|--------------------------------------|
A|--------------------------------------|
F|----------------------13-12-12-/16~-\-|
c|--------------------------------------|
G|--------------------------------------|
C|--------------------------------------|

Rhythm Guitar
D|---------------------------------|
A|---------------------------------|
F|---------------------------------|
c|----9------------9---------------|
G|-11------11---11-------6-5-5-6-\-|
C|------13----9------9-8-6-5-5-6-\-|

I'm fairly confident with all of the pitches except for those trills near the end, but the
last lead part may be using some sort of up octave because there is crazy high feel to it.
Other than that, enjoy this crazy song.
Please rate & comment.
Thanks,
millarso

| /  slide up
| \  slide down
| h  hammer-on
| p  pull-off
| ~  vibrato
| +  harmonic
| TP tremolo picking
            
Submit corrections

↑ Back to top | Tablatures and chords for acoustic guitar and electric guitar, ukulele, drums are parodies/interpretations of the original songs. You may use it for private study, scholarship, research or language learning purposes only