Home » C » Converge »

Converge - Worms Will Feed Tabs

Artists:  A B C D E F G H I J K L M N O P Q R S T U V W X Y Z # 

Worms Will Feed Tabs

(ver. 1) Click to play this song!
Converge
(Intro)
Worms Will Feed -CONVERGE

Tuning:drop c

Intro riff

e|----------0~-0-0~------------------0--0~------------------------------------------|
B|----------6~-3-2~------------------3--2~---smear bend-----------------------------|
G|-----3-0--------------------3-0---------------------------------------------------|
D|----------------------------------------------------------------------------------|
A|5-5--------------------5-5--------------------------------------------------------|
E|5-5--------------------5-5--------------------------------------------------------|

e|----------0~-0-0~-----------------------------------------------------------------|
B|----------6~-3-2~---0-0----0-0----------------------------------------------------|
G|-----3-0------------2-3----3-2---000000~------------------------------------------|
D|---------------------------------666665~------------------------------------------|
A|5-5-------------------------------------------------------------------------------|
E|5-5-------------------------------------------------------------------------------|
                                   xxxxxxx


this riff is a main part of the song    i´m still working on the other parts!!  Please rate!

| /  slide up
| \  slide down
| h  hammer-on
| p  pull-off
| ~  vibrato
| +  harmonic
| x  Mute note
            
Submit corrections

↑ Back to top | Tablatures and chords for acoustic guitar and electric guitar, ukulele, drums are parodies/interpretations of the original songs. You may use it for private study, scholarship, research or language learning purposes only