» » »

Coldplay - Everglow Tabs

Artists:  A B C D E F G H I J K L M N O P Q R S T U V W X Y Z # 

Everglow Tabs

(ver. 2) Click to play this song!
Coldplay
 Rating:
2.7/5 (29 votes)

 Everglow  lessons Tabs too difficult? Try these video lessons and learn fast
 
                Capo fret 4


[INTRO   0:00] (piano arranged for guitar)
                             Am        F                  C        Em7
E||------------------------|-----8--7--5-----3---------|--0--3--0-----------------|
B||------------------------|--5-------------------1h-3-|--1--------3---------1h-3-|
G||-------------------5h-7-|--5--------5-----5---------|-----------0--------------|
D||------------------------|-----------3---------------|-----------2--------------|
A||------------------------|--0------------------------|--3-----------------------|
E||------------------------|---------------------------|-----------0--------------|

  Am       F                 C         G               
--0-----------------------|-------0--------------------|
--1--3--1-----------------|--1--3------3---------------|
-----------2-----0--------|--0---------0----------5h-7-|
--------------------------|----------------------------|
--0-----------------------|--3-------------------------|
-----------1-----------3--|------------3---------------|

  Am        F                 C        G                 Am       F                 Gsus 4
-----8--7--5-----3---------|--0--3--0-----------------|--0-----------------------|-------------------------|
--5-------------------1h-3-|--1--------3---------1h-3-|--1--3--1-----------------|--1------------------1-3-|
--5--------5-----5---------|-----------0--------------|-----------2-----0-----0--|------0------------------|
-----------3---------------|-----------2--------------|--------------------3-----|--0-----0----------------|
--0------------------------|--3-----------------------|--0-----------------------|-----------2-------------|
---------------------------|-----------0--------------|-----------1--------------|--3----------------------|

 Am        F                 G     
--0----------------------|----------------------------||
--1--3--1----------------|--0g1--3-3---1-0------------||
-----------2-----0-------|----0----0-----0------------||
-------------------------|----------------------------||
--0----------------------|----------------------------||
-----------1-------------|----3----3-----3------------|| 

   
                                                                          ________________________
[VERSE 1   0:32]    *Pluck the strings*                                    |1
    Am     F             C      Em7            Am      F              C      G               2x
|----------------------|---------------------|---------------------|----------------------||
|---1------1-----------|--1------3-----------|--1------1-----------|--1------0------------||
|*--2------2-----------|--0------0-----------|--2------2-----------|--0------0-----------*||
|*--2------3-----------|--2------2-----------|--2------3-----------|--2------0-----------*||
|---0------------------|--3------------------|--0------------------|--3-------------------||
|----------1-----------|---------0-----------|---------1-----------|---------3------------||

 ______________________
|2 Gsus4  G        
----------------------||
--1-------0-----------||
--0-------0-----------||
--0-------0-----------||
----------------------||
--3-------3-----------||


[BRIDGE 1   0:59]
   Am      F              C      G            2x
|----------------------|----------------------|
|---1------1-----------|--1------0------------|
|*--2------2-----------|--0------0-----------*|
|*--2------3-----------|--2------0-----------*|
|---0------------------|--3-------------------|
|----------1-----------|---------3------------|



[VERSE 2   1:13] (X means slap, on beat 2 and 4 hit the strings with your thumb)

    Am     F             C      Em7            Am      F              C      G               2x
|----------------------|---------------------|---------------------|----------------------||
|---1------1-----------|--1------3-----------|--1------1-----------|--1------0------------||
|*--2------2-----------|--0------0-----------|--2------2-----------|--0------0-----------*||
|*--2------3-----------|--2------2-----------|--2------3-----------|--2------0-----------*||
|---0---X---------X----|--3--X-----------X---|--0---X---------X----|--3---X--------X------||
|----------1-----------|---------0-----------|---------1-----------|---------3------------||

   Am      F              Gsus4                G
|----------------------|----------------------|-------------------||
|---1------1-----------|--1------1------------|-0------0----------||
|---2------2-----------|--0------0------------|-0------0----------||
|---2------3-----------|--0------0------------|-0------0----------||
|---0--X----------X----|-----X----------X-----|-----X--------X----||
|----------1-----------|--3------3------------|-3------3----------||



[CHORUS 1   1:49] Strum per bar:                                    _________________________
|D  UD    D  U  D  D  DU |                                         | 1
    Am     F             C      Em7            Am      F              C      G               2x
|---0------1-----------|--0------3-----------|--0------1-----------|--0------3------------||
|---1------1-----------|--1------3-----------|--1------1-----------|--1------0------------||
|*--2------2-----------|--0------0-----------|--2------2-----------|--0------0-----------*||
|*--2------3-----------|--2------2-----------|--2------3-----------|--2------0-----------*||
|---0------3-----------|--3------2-----------|--0------3-----------|--3------2------------||
|----------1-----------|---------0-----------|---------1-----------|---------3------------||

_____________________________
|2
  G
|-3--------------------||
|-0--------------------||
|-0--------------------||
|-0--------------------||
|-2--------------------||
|-3--------------------||



[BRIDGE 2   2:15]
   Am      F              C      G            2x
|---0------1-----------|--0------3------------|
|---1------1-----------|--1------0------------|
|*--2------2-----------|--0------0-----------*|
|*--2------3-----------|--2------0-----------*|
|---0------3-----------|--3------2------------|
|----------1-----------|---------3------------|



[VERSE 3   2:28] 
    Am     F             C      Em7            Am      F              C      G              
|---0------1-----------|--0------3-----------|--0------1-----------|--0------3------------||
|---1------1-----------|--1------3-----------|--1------1-----------|--1------0------------||
|---2------2-----------|--0------0-----------|--2------2-----------|--0------0------------||
|---2------3-----------|--2------2-----------|--2------3-----------|--2------0------------||
|---0------3-----------|--3------2-----------|--0------3-----------|--3------2------------||
|----------1-----------|---------0-----------|---------1-----------|---------3------------||

    Am     F             C      Em7            Am      F              Gsus4  G               
|---0------1-----------|--0------3-----------|--0------1-----------|--3------3------------||
|---1------1-----------|--1------3-----------|--1------1-----------|--1------0------------||
|---2------2-----------|--0------0-----------|--2------2-----------|--0------0------------||
|---2------3-----------|--2------2-----------|--2------3-----------|--0------0------------||
|---0------3-----------|--3------2-----------|--0------3-----------|--x------2------------||
|----------1-----------|---------0-----------|---------1-----------|--3------3------------||


   Am      F              Gsus4                G
|---0------1-----------|--3------3------------|-3------3----------||
|---1------1-----------|--1------1------------|-0------0----------||
|*--2------2-----------|--0------0------------|-0------0----------||
|*--2------3-----------|--0------0------------|-0------0----------||
|---0------3-----------|--2------2------------|-2------2----------||
|----------1-----------|--3------3------------|-3------3----------||




[CHORUS 2    3:04]
    Am     F             C      Em7            Am      F              C      G               2x
|---0------1-----------|--0------3-----------|--0------1-----------|--0------3------------||
|---1------1-----------|--1------3-----------|--1------1-----------|--1------0------------||
|*--2------2-----------|--0------0-----------|--2------2-----------|--0------0-----------*||
|*--2------3-----------|--2------2-----------|--2------3-----------|--2------0-----------*||
|---0------3-----------|--3------2-----------|--0------3-----------|--3------2------------||
|----------1-----------|---------0-----------|---------1-----------|---------3------------||

 _____________________________
|2
  G
|-3--------------------||
|-0--------------------||
|-0--------------------||
|-0--------------------||
|-2--------------------||
|-3--------------------||

[Ending   3:38]

    Am     F             C      Em7            Am      F              C      G               
|---0------1-----------|--0------3-----------|--0------1-----------|--0------3------------||
|---1------1-----------|--1------3-----------|--1------1-----------|--1------0------------||
|---2------2-----------|--0------0-----------|--2------2-----------|--0------0------------||
|---2------3-----------|--2------2-----------|--2------3-----------|--2------0------------||
|---0------3-----------|--3------2-----------|--0------3-----------|--3------2------------||
|----------1-----------|---------0-----------|---------1-----------|---------3------------||

    Am     F             C      Em7            Am      F              Gsus4  G               
|---0------1-----------|--0------3-----------|--0------1-----------|--3------3------------||
|---1------1-----------|--1------3-----------|--1------1-----------|--1------0------------||
|---2------2-----------|--0------0-----------|--2------2-----------|--0------0------------||
|---2------3-----------|--2------2-----------|--2------3-----------|--0------0------------||
|---0------3-----------|--3------2-----------|--0------3-----------|--x------2------------||
|----------1-----------|---------0-----------|---------1-----------|--3------3------------||

[4:03]
   Am      F              Gsus4                G
|---0------1-----------|--3------3------------|-3------3----------||
|---1------1-----------|--1------1------------|-0------0----------||
|---2------2-----------|--0------0------------|-0------0----------||
|---2------3-----------|--0------0------------|-0------0----------||
|---0------3-----------|--x------x------------|-2------2----------||
|----------1-----------|--3------3------------|-3------3----------||

[4:10]
   Am      F              C      G            2x
|---0------1-----------|--0------3------------|
|---1------1-----------|--1------0------------|
|*--2------2-----------|--0------0-----------*|
|*--2------3-----------|--2------0-----------*|
|---0------3-----------|--3------2------------|
|----------1-----------|---------3------------|            
Submit corrections


        Everglow  lessons Hard to play? Try these video lessons and learn fast Everglow  lessons
        
↑ Back to top | Tablatures and chords for acoustic guitar and electric guitar, ukulele, drums are parodies/interpretations of the original songs. You may use it for private study, scholarship, research or language learning purposes only