» » »

Coldplay - Everglow Tabs

Artists:  A B C D E F G H I J K L M N O P Q R S T U V W X Y Z # 

Everglow Tabs

(ver. 1) Click to play this song!
Coldplay
 Rating:
2.6/5 (28 votes)

 Everglow  lessons Tabs too difficult? Try these video lessons and learn fast
 
                0:59

e|----------------------------------------------------------------------------------------------------|
B|--12-12-12-12-12-12-12-12-14-14-------14-14-------12-12-12-12-12-12-12-12-14-14-------14-14---------|
G|--------------------------------16/11-------16/11-------------------------------16/11-------16/11---| x2 
D|----------------------------------------------------------------------------------------------------|
A|----------------------------------------------------------------------------------------------------|
E|----------------------------------------------------------------------------------------------------|

1:48

e|------------------------------------------------------------------------------------------------|
B|--12-12-12-12-12-12-12-12-14-14-------14-14-------12-12-12-12-12-12-12-12-12-12----12-12--------|
G|--------------------------------16/11-------16/11-------------------------------11-------11-----| x4 
D|------------------------------------------------------------------------------------------------|
A|------------------------------------------------------------------------------------------------|
E|------------------------------------------------------------------------------------------------|

e|----------------------------------------------------------------------------------------------------|
B|--12-12-12-12-12-12-12-12-14-14-------14-14-------12-12-12-12-12-12-12-12-14-14-------14-14---------|
G|--------------------------------16/11-------16/11-------------------------------16/11-------16/11---| x2 
D|----------------------------------------------------------------------------------------------------|
A|----------------------------------------------------------------------------------------------------|
E|----------------------------------------------------------------------------------------------------|

3:04

e|------------------------------------------------------------------------------------------------|
B|--12-12-12-12-12-12-12-12-14-14-------14-14-------12-12-12-12-12-12-12-12-12-12----12-12--------|
G|--------------------------------16/11-------16/11-------------------------------11-------11-----| x5 
D|------------------------------------------------------------------------------------------------|
A|------------------------------------------------------------------------------------------------|
E|------------------------------------------------------------------------------------------------|

3:37

e|---------------------------------------------------------------------------|
B|---------------------------------------------------------------------------|
G|--4-4-4-4-4-4-4/8-8-8/9-8-8-8--4-4-4-4-4-4-4/8-8-8/9-8-8-8-----------------|
D|---------------------------------------------------------------------------|
A|---------------------------------------------------------------------------|
E|---------------------------------------------------------------------------|

e|--21-21-21-21-21-21-19----16-19----16-19-------19--------------------------------|
B|--------------------------16-------16-------19-------19-19----16-16-16-17-16-----|
G|-----------------------18-------18-------18-------18-------18----------------18--|
D|---------------------------------------------------------------------------------|
A|---------------------------------------------------------------------------------|
E|---------------------------------------------------------------------------------|

right afterwards

e|-------------------------------------------------------------------------------------|
B|----------------------------------17-17-17-17-17-17-17-17-17-19-19-19-19-19-19-19----|
G|--4-4-4-4-4-4-4-4-4-4-4-4-4-4-4-4----------------------------------------------------|
D|-------------------------------------------------------------------------------------|
A|-------------------------------------------------------------------------------------|
E|-------------------------------------------------------------------------------------|

the right after that

e|----------------------------------------------------------------------------------------------------|
B|--12-12-12-12-12-12-12-12-14-14-------14-14-------12-12-12-12-12-12-12-12-14-14-------14-14---------|
G|--------------------------------16/11-------16/11-------------------------------16/11-------16/11---| x2 
D|----------------------------------------------------------------------------------------------------|
A|----------------------------------------------------------------------------------------------------|
E|----------------------------------------------------------------------------------------------------|
            
Submit corrections


        Everglow  lessons Hard to play? Try these video lessons and learn fast Everglow  lessons
        
↑ Back to top | Tablatures and chords for acoustic guitar and electric guitar, ukulele, drums are parodies/interpretations of the original songs. You may use it for private study, scholarship, research or language learning purposes only