» » »

Coldplay - Everglow Tabs

Artists:  A B C D E F G H I J K L M N O P Q R S T U V W X Y Z # 

Everglow Tabs

(ver. 3) Click to play this song!
Coldplay
 Rating:
4.4/5 (11 votes)

 Everglow  lessons Tabs too difficult? Try these video lessons and learn fast
 
                [Intro]
(0:14)
e|-----------------------------------------|-----------------------------------------|
B|--12-12-12-12-12-12-12-12-14-14-12-\-5-5-|--12-12-12-12-12-12-12-12-14-14-12-\-7-7-|
G|-----------------------------------------|-----------------------------------------|
D|-----------------------------------------|-----------------------------------------| 2x
A|-----------------------------------------|-----------------------------------------|
E|-----------------------------------------|-----------------------------------------|

e|-----------------------------------------|-----------------------------------------|
B|--12-12-12-12-12-12-12-12-14-14-12-\-5-5-|--5-/-7-7--------------------------------|
G|-----------------------------------------|-----------------------------------------|
D|-----------------------------------------|-----------------------------------------|
A|-----------------------------------------|-----------------------------------------|
E|-----------------------------------------|-----------------------------------------|

[Pre-Verse]
(1:00)
e|-----------------------------------------|-----------------------------------------|
B|--12-12-12-12-12-12-12-12-14-14-12-\-5-5-|--12-12-12-12-12-12-12-12-14-14-12-\-7-7-|
G|-----------------------------------------|-----------------------------------------|
D|-----------------------------------------|-----------------------------------------| 2x
A|-----------------------------------------|-----------------------------------------|
E|-----------------------------------------|-----------------------------------------|

[Verse]
When it feels like the end of my world..... (1:35)
e|-----------------|-------------------|
B|-----------------|-------------------|
G|-----------------|-------------------|
D|-----------------|-------------------|
A|--7-9-/-11-9-7-6-|--7-9-/-11-9-7-7-6-|
E|-----------------|-------------------|

[Chorus]
But when I'm cold..... (1:50)
e|-----------------------------------------|-----------------7-7-7-7-7-7-7-7-|
B|--12-12-12-12-12-12-12-12-14-14-12-\-5-5-|--12-12-12-12-12-----------------|
G|-----------------------------------------|---------------------------------|
D|-----------------------------------------|---------------------------------|
A|-----------------------------------------|---------------------------------|
E|-----------------------------------------|---------------------------------|

e|-----------------------------------------|---------------------------------|
B|--12-12-12-12-12-12-12-12-14-14-12-\-5-5-|--12-12-12-12-12-7-7-7-7-7-7-----|
G|-----------------------------------------|---------------------------------|
D|-----------------------------------------|---------------------------------|
A|-----------------------------------------|---------------------------------|
E|-----------------------------------------|---------------------------------|

e|-----------------------------------------|-----------------------------------------|
B|--12-12-12-12-12-12-12-12-14-14-12-\-5-5-|--12-12-12-12-12-12-12-12-14-14-12-\-7-7-|
G|-----------------------------------------|-----------------------------------------|
D|-----------------------------------------|-----------------------------------------|
A|-----------------------------------------|-----------------------------------------|
E|-----------------------------------------|-----------------------------------------|

e|-----------------------------------------|---------------------------------------|
B|--12-12-12-12-12-12-12-12-14-14-12-\-5-5-|--5-/-7-7------------------------------|
G|-----------------------------------------|---------------------------------------|
D|-----------------------------------------|---------------------------------------|
A|-----------------------------------------|---------------------------------------|
E|-----------------------------------------|---------------------------------------|

[Solo 1]
(2:18)
e|-----------|-------------------|-----------|--11-h-12-h-14-p-11-9-|
B|--------12-|--12-p-9-\-7-------|--------12-|----------------------|
G|-----13----|-------------9-\-6-|-----13----|----------------------|
D|--11-------|-------------------|--11-------|----------------------|
A|-----------|-------------------|-----------|----------------------|
E|-----------|-------------------|-----------|----------------------|

[Verse]
Life as short as the falling of snow..... (2:50)
e|-----------------|-------------------|
B|-----------------|-------------------|
G|-----------------|-------------------|
D|-----------------|-------------------|
A|--7-9-/-11-9-7-6-|--7-9-/-11-9-7-7-6-|
E|-----------------|-------------------|

[Chorus]
But when I'm cold..... (3:05)
e|-----------------------------------------|-----------------7-7-7-7-7-7-7-7-|
B|--12-12-12-12-12-12-12-12-14-14-12-\-5-5-|--12-12-12-12-12-----------------|
G|-----------------------------------------|---------------------------------|
D|-----------------------------------------|---------------------------------|
A|-----------------------------------------|---------------------------------|
E|-----------------------------------------|---------------------------------|

e|-----------------------------------------|---------------------------------|
B|--12-12-12-12-12-12-12-12-14-14-12-\-5-5-|--12-12-12-12-12-7-7-7-7-7-7-----|
G|-----------------------------------------|---------------------------------|
D|-----------------------------------------|---------------------------------|
A|-----------------------------------------|---------------------------------|
E|-----------------------------------------|---------------------------------|

e|-----------------------------------------|-----------------------------------------|
B|--12-12-12-12-12-12-12-12-14-14-12-\-5-5-|--12-12-12-12-12-12-12-12-14-14-12-\-7-7-|
G|-----------------------------------------|-----------------------------------------|
D|-----------------------------------------|-----------------------------------------|
A|-----------------------------------------|-----------------------------------------|
E|-----------------------------------------|-----------------------------------------|

e|-----------------------------------------|---------------------------------------|
B|--12-12-12-12-12-12-12-12-14-14-12-\-5-5-|--5-/-7-7--7-7-7-7---------------------|
G|-----------------------------------------|---------------------------------------|
D|-----------------------------------------|---------------------------------------|
A|-----------------------------------------|---------------------------------------|
E|-----------------------------------------|---------------------------------------|

e|-----------------------------------------|---------------------------------------|
B|--12-12-12-12-12-12-12-12-14-14-12-\-5-5-|--5-/-7-7------------------------------|
G|-----------------------------------------|---------------------------------------|
D|-----------------------------------------|---------------------------------------|
A|-----------------------------------------|---------------------------------------|
E|-----------------------------------------|---------------------------------------|

[Solo 2]
(3:38)
Play the first part of the solo with an 'volume pedal'. If you haven't one, you can turn your volume louder 
and softer to get te same sound.
e|------------|---------------|
B|------------|---------------|
G|--4-~-------|--8-b-9-br-4-~-|
D|------------|---------------| 2x
A|------------|---------------|
E|------------|---------------|

e|--21------------19----16-19----16-19-------19-------19----------------|
B|--------16-h-17-------------------------19-------19-------------------|
G|-----18------------18-------18-------18-------18-------18-20-21-20-18-|
D|----------------------------------------------------------------------|
A|----------------------------------------------------------------------|
E|----------------------------------------------------------------------|

e|--16-16-16-16-16-16-16-16-|-----------------| 
B|--------------------------|-----------------| 
G|--------------------------|-----------------|
D|--------------------------|--9-/-11-11-/-13-|
A|--------------------------|-----------------|
E|--------------------------|-----------------|

[Outro]
(4:10)
e|-----------------------------------------|-----------------------------------------|
B|--12-12-12-12-12-12-12-12-14-14-12-\-5-5-|--12-12-12-12-12-12-12-12-14-14-12-\-7-7-|
G|-----------------------------------------|-----------------------------------------|
D|-----------------------------------------|-----------------------------------------| 2x
A|-----------------------------------------|-----------------------------------------|
E|-----------------------------------------|-----------------------------------------|            
Submit corrections


        Everglow  lessons Hard to play? Try these video lessons and learn fast Everglow  lessons
        
↑ Back to top | Tablatures and chords for acoustic guitar and electric guitar, ukulele, drums are parodies/interpretations of the original songs. You may use it for private study, scholarship, research or language learning purposes only