Home » C » Coldplay »

Coldplay - Everglow Tabs

Artists:  A B C D E F G H I J K L M N O P Q R S T U V W X Y Z # 

Everglow Tabs

(ver. 4) Click to play this song!
Coldplay
 Rating:
4.3/5 (13 votes)
                [Intro]
e|-----------12--11--9--7~------------------------------------------------------------|
B|--5--7--9-----------------5--7--9--12--9--7---5--7--9--7--5--2--0----0--5--7--9--7--|
G|------------------------------------------------------------------------------------|
D|------------------------------------------------------------------------------------|
A|------------------------------------------------------------------------------------|
E|------------------------------------------------------------------------------------|

e|-----------12--11--9--7~------------------------------------------------------------|
B|--5--7--9-----------------5--7--9--12--9--7---5--7--9--7--5--2--0---0--5--7--7------|
G|------------------------------------------------------------------------------------|
D|------------------------------------------------------------------------------------|
A|------------------------------------------------------------------------------------|
E|------------------------------------------------------------------------------------|

e|------------------------------------------------------------------------------------|
B|--5--7--9--7--5--2--0--5--7--7------------------------------------------------------|
G|------------------------------------------------------------------------------------|
D|------------------------------------------------------------------------------------|
A|------------------------------------------------------------------------------------|
E|------------------------------------------------------------------------------------|
            
Submit corrections

↑ Back to top | Tablatures and chords for acoustic guitar and electric guitar, ukulele, drums are parodies/interpretations of the original songs. You may use it for private study, scholarship, research or language learning purposes only