» » »

Coldplay - Adventure Of A Lifetime Tabs

Artists:  A B C D E F G H I J K L M N O P Q R S T U V W X Y Z # 

Adventure Of A Lifetime Tabs

(ver. 1) Click to play this song!
Coldplay
 Rating:
4/5 (22 votes)

 Adventure Of A Lifetime  lessons Tabs too difficult? Try these video lessons and learn fast
 
                Guitar theme:
         
E||--17-12-||---17-12----12------------------------17-12-|
B||--------||---------15----15-13------------------------|
G||--------||*--------------------14-12-14---12----------|
D||--------||*-------------------------------------------|
A||--------||--------------------------------------------|
E||--------||--------------------------------------------|
  

--17-12----12-----------------------15-12-|
--------15----15-13-----------------------|
--------------------14-12-14---12---------|
------------------------------------------|
------------------------------------------|
------------------------------------------|

  
--15-12----12----------------------15-12-|--15-12----12-------------19-20---17-12--||
--------15----15-13----------------------|--------15----15-13----------------------||
--------------------14-12-14---12--------|--------------------14-12---------------*||
-----------------------------------------|----------------------------------------*||
-----------------------------------------|-----------------------------------------||
-----------------------------------------|-----------------------------------------||

Verses: (Strumming: 1 is down   e is up    + is down     a is up)
   
     1  e +  a  2 e  +  a 3  e +  a  4 e + a
E||---------------------------------17------|
B||--17---17-17---15-15---17---15-----------|
G||*-17---17-17---17-17---17---17-----------|
D||*----------------------------------------|
A||-----------------------------------------|
E||-----------------------------------------|

  1 e +  a  2 e  +  u  3  e  +  a  4  e  +  a 
-----------------------------------------------|
--17--17-17---15-15-15-15-15-15-15-15-15-15-15-|
--17--17-17---16-16-16-16-16-16-16-16-16-16-16-|
-----------------------------------------------|
-----------------------------------------------|
-----------------------------------------------|

  1 e +  a  2 e  +  a 3  e +  a 4 e + a  
--------------------------------17-----|
--17--17-17---15-15---17---15----------|
--17--17-17---17-17---17---17----------|
---------------------------------------|
---------------------------------------|
---------------------------------------|
  1 e +  a  2 e  +  u  3  e  +  a  4  e  +  a 
------------------------------------------------||
--17--17-17---15-15-15-15-15-15-15-15-15-15-15--||
--17--17-17---16-16-16-16-16-16-16-16-16-16-16-*||
-----------------------------------------------*||
------------------------------------------------||
------------------------------------------------||


Ending theme 2x:
  
E||---13---13---13---13---12--|----------------------|-----------------------|
B||---------------------------|--15--15--15--13--15--|--/17----------13--15--|
G||*--------------------------|----------------------|-------14--14----------|
D||*--------------------------|----------------------|-----------------------|
A||---------------------------|----------------------|-----------------------|
E||---------------------------|----------------------|-----------------------|

  
----------------||
--/17-----------||
-------14--14--*||
---------------*||
----------------||
----------------||





Chords used for the entire song:
 Dm - G - Am - Am  (every chord displayed gets played one bar)
 -5-    -3-    -5-
 -5-    -3-    -5- 
 -6-    -4-    -5-
 -7-    -5-    -7-
 -7-    -5-    -7-
 -5-    -3-    -5-


OR the open chords:

 -1-    -3-    -0-
 -3-    -3-    -1- 
 -2-    -0-    -2-
 -0-    -0-    -2-
 ---    -2-    -0-
 ---    -3-    ---

_______________________________________________________________________________

Adventure of a Lifetime - Coldplay 
Capo on fret 12

Guitar Theme
E||--5--0--||---5-0----0------------------------5-0--|
B||--------||--------3----3-1------------------------|
G||--------||*------------------2-0-2---0------------|
D||--------||*---------------------------------------|
A||--------||----------------------------------------|
E||--------||----------------------------------------|


   
---5-0----0------------------------3-0--|
--------3----3-1------------------------|
-------------------2-0-2---0------------|
----------------------------------------|
----------------------------------------|
----------------------------------------|


  
--3-0------0-------------------3-0--|--3-0----0---------------7-8-----5-0--||
--------3----3-1--------------------|-------3----3-1-----------------------||
-------------------2-0-2---0--------|-------------------2-0---------------*||
------------------------------------|-------------------------------------*||
------------------------------------|--------------------------------------||
------------------------------------|--------------------------------------||

Verses: (1 is down e is up + is down a is up)


     1 e + a 2 e + a 3 e + a 4 e + a   1 e + a 2 e + u 3 e + a 4 e + a
E||--------------------------5------|----------------------------------|
B||--5---5-5---3-3---5---3----------|--5---5-5---3-3-3-3-3-3-3-3-3-3-3-|
G||--5---5-5---5-5---5---5----------|--5---5-5---4-4-4-4-4-4-4-4-4-4-4-|
D||---------------------------------|----------------------------------|
A||---------------------------------|----------------------------------|
E||---------------------------------|----------------------------------|

  1 e + a 2 e + a 3 e + a 4 e + a   1 e + a 2 e + u 3 e + a 4 e + a  
--------------------------5------|----------------------------------||
--5---5-5---3-3---5---3----------|--5---5-5---3-3-3-3-3-3-3-3-3-3-3-||
--5---5-5---5-5---5---5----------|--5---5-5---4-4-4-4-4-4-4-4-4-4-4-||
---------------------------------|----------------------------------||
---------------------------------|----------------------------------||
---------------------------------|----------------------------------||



Ending theme 2x:
  
E||---1---1---1---1---0--|-----------------|--------------------|
B||----------------------|--3--3--3--1--3--|--/5----------1--3--|
G||*---------------------|-----------------|-------2--2---------|
D||*---------------------|-----------------|--------------------|
A||----------------------|-----------------|--------------------|
E||----------------------|-----------------|--------------------|

  
----------------||
--/5------------||
-------2--2----*||
---------------*||
----------------||
----------------||


            
Submit corrections


        Adventure Of A Lifetime  lessons Hard to play? Try these video lessons and learn fast Adventure Of A Lifetime  lessons
        
↑ Back to top | Tablatures and chords for acoustic guitar and electric guitar, ukulele, drums are parodies/interpretations of the original songs. You may use it for private study, scholarship, research or language learning purposes only