» » »

Coldplay - All I Can Think About Is You Tabs

Artists:  A B C D E F G H I J K L M N O P Q R S T U V W X Y Z # 

All I Can Think About Is You Tabs

(ver. 1) Click to play this song!
Coldplay
 Rating:
4.3/5 (13 votes)

 All I Can Think About Is You  lessons Tabs too difficult? Try these video lessons and learn fast
 
                [Intro]
e|--------------------------------------|
B|--------------------------------------|
G|--------------------------------------|
D|--------------------------------------|
A|------1-1h-3-3-3-3-3-3-3-3-3-3-3-3----|
E|-1h-3---------------------------------|

[Verse]
(Guitar 1)
e|----------------------------------------|
B|----------------------------------------|
G|----------------------------------------|
D|----------------------------------------|
A|-----1-1h-3-3-3-3-3-3-3-3-3-3-3-3-------|
E|-1h-3-----------------------------------|

(Guitar 2)
e|--------------------------------------------------------------------------------------|
B|-1-1-1-1-1-1-1-1-1-1-1-1--3-3-3--1-1-1-1-1-1-1-1-1-1-1-1-3-3-3--1-1-1--6-6-6-6-5-5-5--|
G|--------------------------------------------------------------------------------------|
D|--------------------------------------------------------------------------------------|
A|--------------------------------------------------------------------------------------|
E|--------------------------------------------------------------------------------------|

[Chorus]
e|-----10h-12-----10h-12-13-12-10-----13-12-10---------|
B|-13---------13------------------13-----------13------|
G|-----------------------------------------------------|(x4)
D|-----------------------------------------------------|
A|-----------------------------------------------------|
E|-----------------------------------------------------|

[Outro]
e|---------15-----------------------------------------------|
B|-------------13p-11-13p-11-----11-13b-11--------10-11-----|
G|-12-12--------------------12----------12/10--10-----------|(x2)
D|----------------------------------------------------------|
A|----------------------------------------------------------|
E|----------------------------------------------------------|

e|---------15-------------------------------------------------------------------------------------------|
B|-------------13p-11-13p-11-----11--15-15h-16-15-------------17p-18-17----------------------18-20b-----|
G|-12--12--------------------12----------------15-17---15-17------------17-19-17-19-17--19-20-----------|
D|------------------------------------------------------------------------------------------------------|
A|------------------------------------------------------------------------------------------------------|
E|------------------------------------------------------------------------------------------------------|

e|------------------------|-------------------------------------------------------------------------|
B|-17-18-20-18--15---15b--|--17-18-20--17-18-20-18-15----15--17h-18-17---------------------18-20b---|
G|----------------17------|---------------------------17---------------17--19--17--19--20-----------|
D|------------------------|-------------------------------------------------------------------------|
A|------------------------|-------------------------------------------------------------------------|
E|------------------------|-------------------------------------------------------------------------|            
Submit corrections


        All I Can Think About Is You  lessons Hard to play? Try these video lessons and learn fast All I Can Think About Is You  lessons
        
↑ Back to top | Tablatures and chords for acoustic guitar and electric guitar, ukulele, drums are parodies/interpretations of the original songs. You may use it for private study, scholarship, research or language learning purposes only