» » »

Coldplay - All I Can Think About Is You Tabs

Artists:  A B C D E F G H I J K L M N O P Q R S T U V W X Y Z # 

All I Can Think About Is You Tabs

(ver. 2) Click to play this song!
Coldplay
 Rating:
4.3/5 (12 votes)

 All I Can Think About Is You  lessons Tabs too difficult? Try these video lessons and learn fast
 
                [Intro]

0:00 - 0:13

e |--------------------------------------------------|--------------------------------------------------|
B |--1--1--1--1--1--1--1--1--1--1--3--3--3--3--3--3--|--3--1--1--1--1--1--1--1--1--1--1--3--3--3--3--3--|
G |--------------------------------------------------|--------------------------------------------------|
D |--------------------------------------------------|--------------------------------------------------|
A |--------------------------------------------------|--------------------------------------------------|
E |--------------------------------------------------|--------------------------------------------------|

e |--------------------------------------------------|--------------------------------------------------|
B |--3--1--1--1--1--1--1--1--1--1--1--1--1--1s-6--6--|--6--6--6--6--6--6--6--6--6--6--6--6--6--6--6--6--|
G |--------------------------------------------------|--------------------------------------------------|
D |--------------------------------------------------|--------------------------------------------------|
A |--------------------------------------------------|--------------------------------------------------|
E |--------------------------------------------------|--------------------------------------------------|


[Verse]

0:26 - 1:05

e |--------------------------------------------------|--------------------------------------------------|
B |--1--1--1--1--1--1--1--1--1--1--1--1--3--3--3--3--|--3--1--1--1--1--1--1--1--1--1--1--1--3--3--3--3--|
G |--------------------------------------------------|--------------------------------------------------|
D |--------------------------------------------------|--------------------------------------------------|
A |--------------------------------------------------|--------------------------------------------------|
E |--------------------------------------------------|--------------------------------------------------|

e |--------------------------------------------------|--------------------------------------------------|
B |--6--6--6--6--6--6--6--6--6--6--6--6--6--6--6--6--|--6--6--6--6--6--6--6--6--6--6--6--6--6--5--5--5--|
G |--------------------------------------------------|--------------------------------------------------|
D |--------------------------------------------------|--------------------------------------------------|
A |--------------------------------------------------|--------------------------------------------------|
E |--------------------------------------------------|--------------------------------------------------|

e |--------------------------------------------------|--------------------------------------------------|
B |--5--1--1--1--1--1--1--1--1--1--1--1--3--3--3--3--|--3--1--1--1--1--1--1--1--1--1--1--1--3--3--3--3--|
G |--------------------------------------------------|--------------------------------------------------|
D |--------------------------------------------------|--------------------------------------------------|
A |--------------------------------------------------|--------------------------------------------------|
E |--------------------------------------------------|--------------------------------------------------|

e |--------------------------------------------------|--------------------------------------------------|
B |--3--1--1--1--1--1--1--1--1--1--1--1--1--1--1--1--|--1--1--1--1--1--1--1--1--6--6--6--6--6--6--6--6--|
G |--------------------------------------------------|--------------------------------------------------|
D |--------------------------------------------------|--------------------------------------------------|
A |--------------------------------------------------|--------------------------------------------------|
E |--------------------------------------------------|--------------------------------------------------|

e |--------------------------------------------------|--------------------------------------------------|
B |--1--1--1--1--1--1--1--1s-6--6--6--6--6--6--6--6s-|--1--1--1--1--1--1--1--1--1--1--1--1--3--3--3--3--|
G |--------------------------------------------------|--------------------------------------------------|
D |--------------------------------------------------|--------------------------------------------------|
A |--------------------------------------------------|--------------------------------------------------|
E |--------------------------------------------------|--------------------------------------------------|

e |--------------------------------------------------|--------------------------------------------------|
B |--3--1--1--1--1--1--1--1--1--1--1--1--3--3--3--3--|--3--1--1--1--1--1--1--1--1--1--1--1--1--1--1--1--|
G |--------------------------------------------------|--------------------------------------------------|
D |--------------------------------------------------|--------------------------------------------------|
A |--------------------------------------------------|--------------------------------------------------|
E |--------------------------------------------------|--------------------------------------------------|


[Verse]

"Chaos giving orders..." 
1:05 - 1:45

e |--------------------------------------------------|--------------------------------------------------|
B |--1--1--1--1--1--1s-6--6--6--6--6--6--6s-1--1--1--|--1--1--1--1--1--1--1--1--1--1--1--1--3--3--3--3--|
G |--------------------------------------------------|--------------------------------------------------|
D |--------------------------------------------------|--------------------------------------------------|
A |--------------------------------------------------|--------------------------------------------------|
E |--------------------------------------------------|--------------------------------------------------|

e |--------------------------------------------------|--------------------------------------------------|
B |--3--1--1--1--1--1--1--1--1--1--1--1--3--3--3--3--|--3--1--1--1--1--1--1--1--1--1--1--1--1--1--1--1--|
G |--------------------------------------------------|--------------------------------------------------|
D |--------------------------------------------------|--------------------------------------------------|
A |--------------------------------------------------|--------------------------------------------------|
E |--------------------------------------------------|--------------------------------------------------|

e |--------------------------------------------------|--8-----------------------------------------------|
B |--1--1--1--1--1--1--1--1--1--1--1--1--------------|--------1--1--1--1--1--1--1--1--1--1--3--3--3--3--|
G |--------------------------------------------------|--------------------------------------------------|
D |--------------------------------------------------|--------------------------------------------------|
A |--------------------------------------------------|--------------------------------------------------|
E |--------------------------------------------------|--------------------------------------------------|

e |--------------------------------------------------|--------------------------------------------------|
B |--3--1--1--1--1--1--1--1--1--1--1--1--3--3--3--3--|--3--1--1--1--1--1--1--1--1--1--1--1s-6--6--6--6--|
G |--------------------------------------------------|--------------------------------------------------|
D |--------------------------------------------------|--------------------------------------------------|
A |--------------------------------------------------|--------------------------------------------------|
E |--------------------------------------------------|--------------------------------------------------|

e |--------------------------------------------------|--------------------------------------------------|
B |--1--1--1--1--1--1--1--1--1--1--1--1--3--3--3--3--|--3--1--1--1--1--1--1--1--1--1--1--1--3--3--3--3--|
G |--------------------------------------------------|--------------------------------------------------|
D |--------------------------------------------------|--------------------------------------------------|
A |--------------------------------------------------|--------------------------------------------------|
E |--------------------------------------------------|--------------------------------------------------|

e |--------------------------------------------------|--------------------------------------------------|
B |--3--1--1--1--1--1--1--1--1--1--1--1--3--3--3--3--|--3--1--6--6--6--6--6--6s-1--1--1--1--3--3--3--3--|
G |--------------------------------------------------|--------------------------------------------------|
D |--------------------------------------------------|--------------------------------------------------|
A |--------------------------------------------------|--------------------------------------------------|
E |--------------------------------------------------|--------------------------------------------------|

e |--------------------------------------------------|
B |--3--1--1--1--1--1--1--1--1--1--1--1--------------|
G |--------------------------------------------------|
D |--------------------------------------------------|
A |--------------------------------------------------|
E |--------------------------------------------------|


[Chorus]

"But now All I can think about is you"
1:45 - 2:38

e |----8-----------------10----12-----|--8---------------10----12-------|
B |--8----------------8---------------|---------------8-----------------|
G |-----------------------------------|---------------------------------|
D |-----------------------------------|---------------------------------|
A |-----------------------------------|---------------------------------|
E |-----------------------------------|---------------------------------|
                                                                            x4
e |--13-12-10-------------------------|--13-12-10-----------------8-----|
B |-----------13----------------------|-----------13--------8h-10-------|
G |-----------------------------------|---------------------------------|
D |-----------------------------------|---------------------------------|
A |-----------------------------------|---------------------------------|
E |-----------------------------------|---------------------------------|


[Breakdown]

Piano arranged for guitar
2:38 - 3:05

e |--3--1--0--3--1--0--3--1--0--3--1--0--3--1--0-----|--6--5--3--6--5--3--6--5--3--6--5--3--6--5--3-----|
B |-----------------------------------------------3--|-----------------------------------------------6--|
G |--------------------------------------------------|--------------------------------------------------|
D |--------------------------------------------------|--------------------------------------------------|
A |--------------------------------------------------|--------------------------------------------------|
E |--------------------------------------------------|--------------------------------------------------|

e |--5--3-----5--3-----5--3-----5--3-----5--3--------|--3--1--0--3--1--0--3--1--0--3--1--0--3--1--0-----|
B |--------6--------6--------6--------6--------6--5--|-----------------------------------------------3--|
G |--------------------------------------------------|--------------------------------------------------|
D |--------------------------------------------------|--------------------------------------------------|
A |--------------------------------------------------|--------------------------------------------------|
E |--------------------------------------------------|--------------------------------------------------|

e |--------------------------------------------------|--------------------------------------------------|
B |--8--6-----8--6-----8--6-----8--6-----8--6--------|--6--------6--------6--------6--------6-----------|
G |--------8--------8--------8--------8--------8--7--|-----8--7-----8--7-----8--7-----8--7-----8--7--5--|
D |--------------------------------------------------|--------------------------------------------------|
A |--------------------------------------------------|--------------------------------------------------|
E |--------------------------------------------------|--------------------------------------------------|

e |--3--1--0--3--1--0--3--1--0--3--1--0--3--1--0-----|--------------------------------------------------|
B |-----------------------------------------------3--|--8--6-----8--6-----8--6-----8--6-----8--6--------|
G |--------------------------------------------------|--------8--------8--------8--------8--------8--7--|
D |--------------------------------------------------|--------------------------------------------------|
A |--------------------------------------------------|--------------------------------------------------|
E |--------------------------------------------------|--------------------------------------------------|


3:05 - 3:33

e |-----3--------|-----3--------|-----3--------|-----3--------|-----3--------|-----1--------|
B |-----1--------|-----3--------|-----1--------|-----1--------|-----1--------|-----3--------|
G |-----0--------|-----3--------|-----2--------|-----0--------|-----3--------|-----3--------|
D |-----2--------|-----5--------|-----3--------|-----2--------|-----1--------|-----3--------|
A |-----3--------|-----5--------|-----0--------|-----2--------|-----1--------|-----1--------|
E |--------------|-----3--------|-----1--------|--------------|--------------|--------------|

e |-----------1-----------------1--------------------|-----------3-----------------3--------------3-----|
B |-----------1-----------------1--------------------|-----------3-----------------3--------------3-----|
G |-----------2-----------------2--------------------|-----------3-----------------3--------------3-----|
D |--3--------3--------3--------3--------3-----3-----|--5--------5--------5--------5--------5-----5-----|
A |--0--------0--------0--------0--------0-----0-----|--6--------6--------6--------6--------6-----6-----|
E |--1--------1--------1--------1--------1-----1-----|--4--------4--------4--------4--------4-----4-----|


[Solo]

3:33 - 3:46

e |-------15-----------------------|-----------------------------------------|
B |--------------13p11-13p11----11-|--13b14b13p11----11----------10s3--------|
G |--------------------------12----|--------------12-------12-10-10s3--------|
D |--------------------------------|-----------------------------------------| x2
A |--------------------------------|-----------------------------------------|
E |--------------------------------|-----------------------------------------|


[Chorus]

3:46 - 4:31

e |-------15-----------------------|-----------------------------------------------------|
B |--------------13h11-13h11----11-|--13b14b13p11----11----15---15b17b15------13------13-|
G |--------------------------12----|--------------12-----------------------14------14----|
D |--------------------------------|-----------------------------------------------------|
A |--------------------------------|-----------------------------------------------------|
E |--------------------------------|-----------------------------------------------------|

e |----------------------------------------------------------|---------------------13--13---15--15b16b15-|
B |--17-17b18b17------15------13-17-17b18b17------15------13-|--13---15---16--16-------------------------|
G |----------------17------14------------------17------14----|-------------------------------------------|
D |----------------------------------------------------------|-------------------------------------------|
A |----------------------------------------------------------|-------------------------------------------|
E |----------------------------------------------------------|-------------------------------------------|

e |-------------15--|--13--------------------|-----------------------------15--|
B |-------13h15-----|---------15-15-----13---|--15b16b15--15---------13h15-----|
G |-----------------|------------------------|---------------------------------|
D |-----------------|------------------------|---------------------------------|
A |-----------------|------------------------|---------------------------------|
E |-----------------|------------------------|---------------------------------|

e |-------------15--|-------------15--|--13------------------|
B |-------13h15-----|-------13h15-----|---------15-15--------|
G |-----------------|-----------------|----------------------|
D |-----------------|-----------------|----------------------|
A |-----------------|-----------------|----------------------|
E |-----------------|-----------------|----------------------|

e |----------------------------------------------------------|---------------------13--13---15--15b16b15-||
B |--17-17b18b17------15------13-17-17b18b17------15------13-|--13---15---16--16-------------------------||
G |----------------17------14------------------17------14----|-------------------------------------------||
D |----------------------------------------------------------|-------------------------------------------||
A |----------------------------------------------------------|-------------------------------------------||
E |----------------------------------------------------------|-------------------------------------------||            
Submit corrections


        All I Can Think About Is You  lessons Hard to play? Try these video lessons and learn fast All I Can Think About Is You  lessons
        
↑ Back to top | Tablatures and chords for acoustic guitar and electric guitar, ukulele, drums are parodies/interpretations of the original songs. You may use it for private study, scholarship, research or language learning purposes only