Home » C » Coldplay »

Coldplay - All I Can Think About Is You Bass

Artists:  A B C D E F G H I J K L M N O P Q R S T U V W X Y Z # 

All I Can Think About Is You Bass

(ver. 1) Click to play this song!
Coldplay
[Intro]
0:13
G|---------------------------------------------------------------|
D|---8h10---10----10---10------8---------------------------------|
A|------------------------8h10-----------------------------------|
E|--------8-----8----8-------------------------------------------|

G|---------------------------------------------------------------|
D|---8h10---10----10---10------8---------------------------------|
A|------------------------8h10---10------------------------------| (x11)
E|--------8-----8----8-------------------------------------------|

[Verse/Chorus]
0:52-2:38
G|---------------------------------------------------------------|
D|---8h10---10----10---10------8---------------------------------|
A|------------------------8h10---10------------------------------| (x32)
E|--------8-----8----8-------------------------------------------|

[Outro]
G|---------------------------------------------------------------|
D|---------------------------------------------------------------|
A|--------10----8----7----6----5---------------------------------|
E|---8------------------------------5----4---9-------------------|
I can't really hear what it's playing but these are the notes            
Submit corrections

↑ Back to top | Tablatures and chords for acoustic guitar and electric guitar, ukulele, drums are parodies/interpretations of the original songs. You may use it for private study, scholarship, research or language learning purposes only