» » »

Coldplay - All I Can Think About Is You Tabs

Artists:  A B C D E F G H I J K L M N O P Q R S T U V W X Y Z # 

All I Can Think About Is You Tabs

(ver. 3) Click to play this song!
Coldplay
 Rating:
4.3/5 (10 votes)

 All I Can Think About Is You  lessons Tabs too difficult? Try these video lessons and learn fast
 
                [Intro]
e|-------------------------------------|-------------------------------------|
B|-------------------------------------|-------------------------------------|
G|--5-5-5-5--5-5-5-5--5-5-5-7--7-7-7-7-|--5-5-5-5--5-5-5-5--5-5-5-7--7-7-7-7-|
D|-------------------------------------|-------------------------------------|
A|-------------------------------------|-------------------------------------|
E|-------------------------------------|-------------------------------------|

e|--------------------------------------|------------------------------------------------------|
B|--------------------------------------|------------------------------------------------------|
G|--5-5-5-5--5-5-5-5--5-5-5-5--5-5-5-5/-|--10-10-10-10--10-10-10-10--10-10-10-10--10-10-10-10\-|
D|--------------------------------------|------------------------------------------------------|
A|--------------------------------------|------------------------------------------------------|
E|--------------------------------------|------------------------------------------------------|

[Verse]
(0:25)
e|-------------------------------------|-------------------------------------|
B|-------------------------------------|-------------------------------------|
G|--5-5-5-5--5-5-5-5--5-5-5-5--7-7-7-7-|--5-5-5-5--5-5-5-5--5-5-5-5--7-7-7-7-|
D|-------------------------------------|-------------------------------------|
A|-------------------------------------|-------------------------------------|
E|-------------------------------------|-------------------------------------|

e|-----------------------------------------------------|------------------------------------------------|
B|-----------------------------------------------------|------------------------------------------------|
G|--10-10-10-10--10-10-10-10--10-10-10-10--10-10-10-10-|--10-10-10-10--10-10-10-10--10-10-10-10--9-9\-7-|
D|-----------------------------------------------------|------------------------------------------------|
A|-----------------------------------------------------|------------------------------------------------|
E|-----------------------------------------------------|------------------------------------------------|

(0:40)
e|-------------------------------------|-------------------------------------|
B|-------------------------------------|-------------------------------------|
G|--5-5-5-5--5-5-5-5--5-5-5-5--7-7-7-7-|--5-5-5-5--5-5-5-5--5-5-5-5--7-7-7-7-|
D|-------------------------------------|-------------------------------------|
A|-------------------------------------|-------------------------------------|
E|-------------------------------------|-------------------------------------|

e|-------------------------------------|-----------------------------------------------|
B|-------------------------------------|-----------------------------------------------|
G|--5-5-5-5--5-5-5-5--5-5-5-5--5-5-5-5-|--5-5-5-5--5-5-5-5/--10-10-10-10--10-10-10-10\-|
D|-------------------------------------|-----------------------------------------------|
A|-------------------------------------|-----------------------------------------------|
E|-------------------------------------|-----------------------------------------------|

(0:52)                  Fish fell out of water...
e|-------------------------------------|-------------------------------------|
B|-------------------------------------|-------------------------------------|
G|--5-5-5-5--5-5-5-5--5-5-5-5--7-7-7-7-|--5-5-5-5--5-5-5-5--5-5-5-5--7-7-7-7-|
D|-------------------------------------|-------------------------------------|
A|-------------------------------------|-------------------------------------|
E|-------------------------------------|-------------------------------------|
                      Bird stuck on the ground...
e|-------------------------------------|-------------------------------------------------|
B|-------------------------------------|-------------------------------------------------|
G|--5-5-5-5--5-5-5-5--5-5-5-5--5-5-5-5-|--5-5-5-5--5-5/-10-10--10-10-10-10--10-10-10-10\-|
D|-------------------------------------|-------------------------------------------------|
A|-------------------------------------|-------------------------------------------------|
E|-------------------------------------|-------------------------------------------------|

(1:05)                  Chaos giving orders...
e|-------------------------------------|-------------------------------------|
B|-------------------------------------|-------------------------------------|
G|--5-5-5-5--5-5-5-5--5-5-5-5--7-7-7-7-|--5-5-5-5--5-5-5-5--5-5-5-5--7-7-7-7-|
D|-------------------------------------|-------------------------------------|
A|-------------------------------------|-------------------------------------|
E|-------------------------------------|-------------------------------------|
                      Everything is upside down...
e|-------------------------------------|-------------------------------------|
B|-------------------------------------|-------------------------------------|
G|--5-5-5-5--5-5-5-5--5-5-5-5--5-5-5-5-|--5-5-5-5--5-5-5-5--5-5-5-5--5-------|
D|-------------------------------------|-------------------------------------|
A|-------------------------------------|-------------------------------------|
E|-------------------------------------|-------------------------------------|

(1:19)                  The whole world on a flight path...
e|-------------------------------------|-------------------------------------|
B|--13---------------------------------|-------------------------------------|
G|--------------------5-5-5-5--7-7-7-7-|--5-5-5-5--5-5-5-5--5-5-5-5--7-7-7-7-|
D|-------------------------------------|-------------------------------------|
A|-------------------------------------|-------------------------------------|
E|-------------------------------------|-------------------------------------|
                      I wonder where they'll go, ah...
e|--------------------------------------|---------------------------------------|
B|--------------------------------------|---------------------------------------|
G|--5-5-5-5--5-5-5-5--5-5-5-5--5-5-5-5/-|--10-10-5-5--5-5-5-5--5-5-5-5--7-7-7-7-|
D|--------------------------------------|---------------------------------------|
A|--------------------------------------|---------------------------------------|
E|--------------------------------------|---------------------------------------|

(1:32)                 Trouble's on the outside, I know...
e|-------------------------------------|-------------------------------------|
B|-------------------------------------|-------------------------------------|
G|--5-5-5-5--5-5-5-5--5-5-5-5--7-7-7-7-|--5-5-5-5--5-5-5-5--5-5-5-5--7-7-7-7-|
D|-------------------------------------|-------------------------------------|
A|-------------------------------------|-------------------------------------|
E|-------------------------------------|-------------------------------------|

e|---------------------------------------------|-------------------------------------|
B|---------------------------------------------|-------------------------------------|
G|--5-5/-10-10--10-10-10-10\--5-5-5-5--7-7-7-7-|--5-5-5-5--5-5-5-5--5-5-5-5----------|
D|---------------------------------------------|-------------------------------------|
A|---------------------------------------------|-------------------------------------|
E|---------------------------------------------|-------------------------------------|

[Chorus]
(1:45) 
But now, all I can think about is you...
e|---------------|---------------|--13-12-------|--13-12-------------------|
B|--13-----15-17-|--13-----15-17-|--------15-13-|--------15-13---------13~-|
G|------12-------|------12-------|--------------|----------------12h14-----|
D|---------------|---------------|--------------|--------------------------|
A|---------------|---------------|--------------|--------------------------|
E|---------------|---------------|--------------|--------------------------|

              All I can think about is you...
e|---------------|---------------|--13-12-------|--13-12-------------------|
B|--13-----15-17-|--13-----15-17-|--------15-13-|--------15-13---------13~-|
G|------12-------|------12-------|--------------|----------------12h14-----|
D|---------------|---------------|--------------|--------------------------|
A|---------------|---------------|--------------|--------------------------|
E|---------------|---------------|--------------|--------------------------|

              If all that I'm on earth to do...
e|----------------|---------------|--13-12-------|--13-12-------------------|
B|--13-----15/-17-|--13-----15-17-|--------15-13-|--------15-13---------13~-|
G|------12--------|------12-------|--------------|----------------12h14-----|
D|----------------|---------------|--------------|--------------------------|
A|----------------|---------------|--------------|--------------------------|
E|----------------|---------------|--------------|--------------------------|

     Is solo, then what a lone poor shoe...       I want to walk in a two...
e|----------------|---------------|--13-12-------|--13-12-------------------|
B|--13-----15/-17-|--13-----15-17-|--------15-13-|--------15-13---------13~-|
G|------12--------|------12-------|--------------|----------------12h14-----|
D|----------------|---------------|--------------|--------------------------|
A|----------------|---------------|--------------|--------------------------|
E|----------------|---------------|--------------|--------------------------|

[Piano Solo]
(3:05) 
Go...
e|--0--3-|-----3-|--0--3-|-----3-|-----3-|-----3-|----3---3---|----3---3---|
B|--1----|--3----|--1----|--1----|--0----|--3----|--1---1---1-|--0---0---0-|
G|--0----|--3----|--0----|--2----|--2----|--3----|--0---0---0-|--2---2---2-|
D|--2----|--5----|--2----|--2----|--2----|--3----|--2---2---2-|--2---2---2-|
A|--3----|-------|--3----|--0----|--0----|--1----|--3---3---3-|--0---0---0-|
E|-------|-------|-------|-------|-------|-------|------------|------------|

[Guitar Solo]
e|-------------------------------------|-------------------------------------|
B|--20---------------------------------|-------------------------------------|
G|-----17p15-17p15----15-17b19---------|-------------------------------------|
D|-----------------17------------------|-------------------------------------|
A|-------------------------------------|-------------------------------------|
E|-------------------------------------|-------------------------------------|            
Submit corrections


        All I Can Think About Is You  lessons Hard to play? Try these video lessons and learn fast All I Can Think About Is You  lessons
        
↑ Back to top | Tablatures and chords for acoustic guitar and electric guitar, ukulele, drums are parodies/interpretations of the original songs. You may use it for private study, scholarship, research or language learning purposes only