» » »

Clutch - Your Love Is Incarceration Tabs

Artists:  A B C D E F G H I J K L M N O P Q R S T U V W X Y Z # 

Your Love Is Incarceration Tabs

(ver. 2) Click to play this song!
Clutch
 Rating:
2/5 (27 votes)

 Your Love Is Incarceration  lessons Tabs too difficult? Try these video lessons and learn fast
 
                Tuning:Standard

  Intro
  Guitar 1
e|----------------------------------------------------------------------------------------------------------|
B|----------------------------------------------------------------------------------------------------------|
G|----------------------------------------------------------------------------------------------------------|
D|----------------------------------------------------------------------------------------------------------|
A|---5-h-7-7---5-h-7-7---7---5-h-7-7---5-h-7-7---5---5-h-7-7---5-h-7-7---7---5-h-7-7---5-h-7-7---5----------|
E|-0---------0---------0---0---------0---------0---0---------0---------0---0---------0---------0------------|
  Guitar 2
e|----------------------------------------------------------------------------------------------------------|
B|-------------------------------------------------9-/------------------------------------------------------|
G|-9-----------------9-----------------------------9-/---------------9--------------------------------------|
D|-9-----------------9-----------------------------9-/---------------9--------------------------------------|
A|-7-----------------7-----------------------------7-----------------7--------------------------------------|
E|---------------------0-----------------------------------------------0------------------------------------|

 Guitar 1
e|----------------------------------------------------------------------------------------------------------|
B|----------------------------------------------------------------------------------------------------------|
G|----------------------------------------------------------------------------------------------------------|
D|----------------------------------------------------------------------------------------------------------|
A|---5-h-7-7---5-h-7-7---7---5-h-7-7---5-h-7-7---5---5-h-7-7---5-h-7-7---7-----5-5-5--4--3------------------|
E|-0---------0---------0---0---------0---------0---0---------0---------0-------3-3-3--2--1------------------|
  
  Guitar 2
e|----------------------------------------------------------------------------------------------------------|
B|-------------------------------------------------9--------------------------------------------------------|
G|-9-----------------9-----------------------------9--------------------------------------------------------|
D|-9-----------------9-----------------------------9--------------------------------------------------------|
A|-7-----------------7-----------------------------7---------------------------5-5-5--4--3------------------|
E|---------------------0-------------------------------------------------------3-3-3--2--1------------------|

  Verse
  Guitar 1
e|----------------------------------------------------------------------------------------------------------|
B|----------------------------------------------------------------------------------------------------------|
G|----------------------------------------------------------------------------------------------------------|
D|----------------------------------------------------------------------------------------------------------|
A|---5-h-7-7---5-h-7-7---7---5-h-7-7---5-h-7-7---5---5-h-7-7---5-h-7-7---7---5-h-7-7---5-h-7-7-5------------|
E|-0---------0---------0---0---------0---------0---0---------0---------0---0---------0----------------------|

  Verse
  Guitar 2
e|----------------------------------------------------------------------------------------------------------|
B|---------------------8---------------------------------------------------8--------------------------------|
G|-----------------------9-7-9--7--------------------------------------------9-7-9--7-----------------------|
D|--------------------------------7-5-7-----------------------------------------------7-5-7-----------------|
A|----------------------------------------------------------------------------------------------------------|
E|--------------------------------------0-------------------------------------------------------------------|

  Chorus
  Guitar 1 & 2
e|----------------------------------------------------------------------------------------------------------|
B|----------------------------------------------------------------------------------------------------------|
G|----------------------------------------------------------------------------------------------------------|
D|------------------------5--------------------------5--------------------------5---------------------------|
A|-5-5-5--4--3--2-----------7-5-7--5-------2-----------7-5-7--5-------2-----------7-5-7--5-------2----------|
E|-3-3-3--2--1--0--------------------5-3-5-0--------------------5-3-5-0--------------------5-3-5-0----------|

e|----------------------------------------------------------------------------------------------------------|
B|-------------------------12-12-12-12-12-12-12-12-12-12-12-12-12-12-12-12----------------------------------|
G|-------------------------12-12-12-12-12-12-12-12-12-12-12-12-12-12-12-12----------------------------------|
D|-5--------------------------------------------------------------------------------------------------------|
A|---7-5-7--5-------2---------------------------------------------------------------------------------------|
E|------------5-3-5-0---------------------------------------------------------------------------------------|

  Bridge 
  Guitar 1 
e|----------------------------------------------------------------------------------------------------------|
B|----------------------------------------------------------------------------------------------------------|
G|----------------------------------------------------------------------------------------------------------|
D|------------------------------------------------7--7------------------------------------------------------|
A|-9---9----9---9----9----9---------7--7---7--7---5--5--7---9-----------------------------------------------|
E|-7---7----7---7----7----7---------5--5---5--5---------5---7-----------------------------------------------|

  Guitar 2 
e|----------------------------------------------------------------------------------------------------------|
B|----------------------------------------------------------------------------------------------------------|
G|---------------9b11-9b11-9p7---7----------------7-7-------------------------------------------------------|
D|-9-9-9-p-7-h-9---------------9---9-7-7---7-7----------7--9------------------------------------------------|
A|----------------------------------------------------------------------------------------------------------|
E|----------------------------------------------------------------------------------------------------------|            
Submit corrections


        Your Love Is Incarceration  lessons Hard to play? Try these video lessons and learn fast Your Love Is Incarceration  lessons
        
↑ Back to top | Tablatures and chords for acoustic guitar and electric guitar, ukulele, drums are parodies/interpretations of the original songs. You may use it for private study, scholarship, research or language learning purposes only