» » »

Clutch - Spacegrass Bass

Artists:  A B C D E F G H I J K L M N O P Q R S T U V W X Y Z # 

Spacegrass Bass

(ver. 1) Click to play this song!
Clutch
 Rating:
4/5 (4 votes)

 Spacegrass lessons Tabs too difficult? Try these video lessons and learn fast
 
                there were other parts of the song that he left out.

Clutch-Spacegrass

G|--------------------------------------|------------------------------
D|--------------------------------------|------------------------------
A|---5h7p5-7---8-7---5h7p5-7-5----------|---5h7p5-7---8p7---5h7p5------
E|-0---------0-----0-----------7-6-5-3-0|-0---------0-----0-------7-6-5

G|-----------------------------------------------------------|
D|-----------------------------------------------------------|
A|----------5h7p5-7---5h7p5-7---5h7p5------------------------|
E|-3-5^-3-0---------0---------0-------7-6-5^-3-5-6-5-3-5^-3-0|

VERSE:
G|----------------|--------------------------------------|--------------
D|----------------|-------------------------5---5-7^-7^-5|--------------
A|---5h7p5-7---8p7|---5h7p5-7---8p7---5-7-7---7----------|---5h7p5------
E|-0---------0----|-0---------0-----0--------------------|-0-------7-6-5

G|----------|--------------------|
D|----------|--------------------|
A|----------|3h5p3---------------|
E|-3-5^-3-0-|------0-6-8-6-5^-3-0|
            
Submit corrections


        Spacegrass lessons Hard to play? Try these video lessons and learn fast Spacegrass lessons
        
↑ Back to top | Tablatures and chords for acoustic guitar and electric guitar, ukulele, drums are parodies/interpretations of the original songs. You may use it for private study, scholarship, research or language learning purposes only