» » »

Clutch - Your Love Is Incarceration Tabs

Artists:  A B C D E F G H I J K L M N O P Q R S T U V W X Y Z # 

Your Love Is Incarceration Tabs

(ver. 1) Click to play this song!
Clutch
 Rating:
2.9/5 (27 votes)

 Your Love Is Incarceration  lessons Tabs too difficult? Try these video lessons and learn fast
 
                Standard Tuning
Tempo: 125

 INTRO
  Gtr I
  E a E a E E a E a Q   E    E  a E a E E a E a E E E
|-------------------------|---------------------------|
|-------------------------|---------------------------|
|-------------------------|---------------------------|
|-------------------------|---------------------------|
|---5h7-5h7---5h7-5h7-----|-----5h7-5h7---5h7-5h7---5-|
|-0---------0-----------0-|-------------0---------0---|
|
| Gtr II
| Q       Q     Q     E E   +E    Q     E   Q     Q
|-------------------------|---------------------------|
|-------------------------|---------------------------|
|-9-----------------------|---------------------------|
|-9-----------------------|---------------------------|
|-7-----------------------|---------------------------|
|-----------------------0-|-(0)---0-------------------|


   E  a E a E E a E a Q   E    E  a E a E E a E a E E E
|---------------------------|---------------------------|
|---------------------------|---------------------------|
|---------------------------|---------------------------|
|---------------------------|---------------------------|
|-----5h7-5h7---5h7-5h7-----|-----5h7-5h7---5h7-5h7---5-|
|--0----------0-----------0-|-------------0---------0---|
|
|  Q        Q     Q     E E   +E    Q     E   Q     Q
|-12------------------------|---------------------------|
|-12------------------------|---------------------------|
|-12\-----------------------|---------------------------|
|---------------------------|---------------------------|
|---------------------------|---------------------------|
|-------------------------0-|-(0)---0-------------------|


  E a E a E E a E a Q   E    E  a E a E E a E a E E E
|-------------------------|---------------------------|
|-------------------------|---------------------------|
|-------------------------|---------------------------|
|-------------------------|---------------------------|
|---5h7-5h7---5h7-5h7-----|-----5h7-5h7---5h7-5h7---5-|
|-0---------0-----------0-|-------------0---------0---|
|
| Q       Q     Q     E E   +E    Q     E   Q     Q
|-------------------------|---------------------------|
|-------------------------|---------------------------|
|-9-----------------------|---------------------------|
|-9-----------------------|---------------------------|
|-7-----------------------|---------------------------|
|-----------------------0-|-(0)---0-------------------|


   E  a E a E E a E a Q   E   E a E a E E a E a E E E
|---------------------------|-------------------------|
|---------------------------|-------------------------|
|---------------------------|-------------------------|
|---------------------------|-------------------------|
|-----5h7-5h7---5h7-5h7-----|---5h7-5h7---5h7-5h7---5-|
|--0----------0-----------0-|-----------0---------0---|
|
|  Q        Q     Q     Q     E   E   Q     Q     Q
|-12------------------------|-------------------------|
|-12------------------------|-------------------------|
|-12\-----------------------|-------------------------|
|---------------------------|-------------------------|
|---------------------------|-------------------------|
|---------------------------|-----3---3-----2-----1---|


 VERSE
  E a E a E E a E a Q   E   E a E a E   E a E a E E E
|-------------------------|---------------------------|
|-------------------------|---------------------------|
|-------------------------|---------------------------|
|-------------------------|---------------------------|  x3
|---5h7-5h7---5h7-5h7-----|---5h7-5h7-----5h7-5h7---5-|
|-0---------0-----------0-|-------------0---------0---|
|
| Q       Q     Q     Q     E   E   S S E   E   E E E
|-------------------------|-----3---------------------|
|-------------------------|---------5-3-5---3---------|
|-------------------------|---------------------2-0-2-|
|-------------------------|---------------------------|
|-------------------------|---------------------------|
|-0-----------------------|---------------------------|


  E a E a E E a E a Q   E   E a E a E E a E a E E E
|-------------------------|-------------------------|
|-------------------------|-------------------------|
|-------------------------|-------------------------|
|-------------------------|-------------------------|
|---5h7-5h7---5h7-5h7-----|---5h7-5h7---5h7-5h7---5-|
|-0---------0-----------0-|-----------0---------0---|
|
| Q       Q     Q     Q     E   E   Q     Q     Q
|-------------------------|-------------------------|
|-------------------------|-------------------------|
|-------------------------|-------------------------|
|-------------------------|-------------------------|
|-------------------------|-------------------------|
|-0-----------------------|-----3---3-----2-----1---|


 CHORUS
  E a E a E E a E a E E a E   E E S S E E E E E
|---------------------------|-------------------|
|---------------------------|-------------------|
|---------------------------|-------------------|
|---------------------------|---5---------------|
|---5h7-5h7---5h7-5h7---5h7-|-----7-5-7-5-------|
|-0---------0---------0-----|-0-----------7-5-7-|


 AFTER CHORUS
  Q      Q      Q      Q
|-3b3.5--3b3.5--3b3.5--3b3.5----|
|-3------3------3------3--------|
|-------------------------------|
|-------------------------------|
|-------------------------------|
|-------------------------------|


 BRIDGE
  Q  Q.        Q  E      +Q   Q  E   Q.      Q  Q.   Q  E   +Q   E E E E Q
|----------------------|-------------------|--------------|------------------|
|----------------------|-------------------|--------------|------------------|
|----------------------|-------------------|--------------|------------------|
|-9--9---------9--9----|-(9)--9--9---9-----|-7--7----7--7-|-(7)--7-----------|
|-9--9---------9--9----|-(9)--9--9---9-----|-7--7----7--7-|-(7)--7-5-5-------|
|-7--7---------7--7----|-(7)--7--7---7-----|-5--5----5--5-|-(5)--5-----5-7---|
|
| Q  S S S S E Q  E      +Q   Q  S S E  Q    Q  Q.   Q  E   +Q   E E E E Q
|----------------------|-------------------|--------------|------------------|
|----------------------|-------------------|--------------|------------------|
|--------------7--9b11-|-(9)--9--9p7-------|--------------|--------7-7-------|
|-9--9p7h9p7-9---------|-------------9--9--|-7--7----7--7-|-(7)--7-----7-9---|
|----------------------|-------------------|--------------|------------------|
|----------------------|-------------------|--------------|------------------|            
Submit corrections


        Your Love Is Incarceration  lessons Hard to play? Try these video lessons and learn fast Your Love Is Incarceration  lessons
        
↑ Back to top | Tablatures and chords for acoustic guitar and electric guitar, ukulele, drums are parodies/interpretations of the original songs. You may use it for private study, scholarship, research or language learning purposes only