» » »

Clutch - Electric Worry Tabs

Artists:  A B C D E F G H I J K L M N O P Q R S T U V W X Y Z # 

Electric Worry Tabs

(ver. 1) Click to play this song!
Clutch
 Rating:
4/5 (8 votes)

 Electric Worry lessons Tabs too difficult? Try these video lessons and learn fast
 
                -------------------------------------------------------------------------------
-------------------------------------------------------------------------------
5.21.07
Tuning: Standard


  Intro
||-------------------------------------------------------------|
||-------------------------------------------------------------|
||----------3~--5-5p0------------------------------------------|
||--3p0-5-5-----------3-3/5~-3p0-3-4-5~----5~---3--3p0---------|
||-------------------------------------------------------------|
||-------------------------------------6p3--------------6-3~---|

||------------------------------------------8--6~--------------------------|
||-------------------------------------------------------------------------|
||------------------------------------------------------5--3~--------------|
||---3-3h5-----3~---3-3h5----------------5-----------5---------5-5-3-------|
||-------------------------------------------------------------3-3-1-3-----|
||---------6p3------------6--3h3~------------------------------------1-----|

  Verse
||-------------------------------------|
||-------------------------------------|
||-------------------------------------|
||---------------5-5-3-----------------|
||--5-5-5-5-5-5--3-3-1-3--5-5-5-5-5----|
||--3-3-3-3-3-3--------1--3-3-3-3-3----|
       p.m...              p.m....

  Chorus
||--------------------------|
||--------------------------|
||--------------------------|
||--5-5-3-------5-5-3-------|
||--3-3-1-3-----3-3-1-3-----|
||--------1-----------1-----|


  Solo
||-----------------------------------------------------|
||-----------------------------------------------------|
||----5p3p0-3--5p3p0-3-3-3~------5p3p0-3--5p3p0-3-3----|
||--5-----------------------3--5--------------------5~-|
||-----------------------------------------------------|
||-----------------------------------------------------| x2


||-----------------------------------------8----8----8----8-----------|
||--------------------------------------10---10---10---10---10--------|
||-------17~~--17---17----------8-8-8---------------------------------|
||---/17---------17~~--17~~--/9--9-9-9--------------------------------|
||--------------------------------------------------------------------|
||--------------------------------------------------------------------|

||--------------------------------------------------------------------|
||--------------------------------------------------------------------|
||----5p3p0-3--5p3p0-3-3-3~------5p3p0-3--5p3p0----5p3p0--------------|
||--5-----------------------3--5----------------5--------5p3p0--------|
||-------------------------------------------------------------5p3p0--|
||--------------------------------------------------------------------|


||---------------------------------|
||---------------------------------|
||---------5p3p0-------------------|
||---5p3p0-------5p3p0-------------|
||---------------------5p3p0-------|
||---------------------------3~----|




Lyrics

Well you made me weep and you made me moan
When you caused me to leave, child, my happy home.
But someday, baby, you ain’t gonna worry my life anymore.

I get satisfaction everywhere I go.
Where I lay my head - that’s where I call home.
Whether barren pines, or the mission stare,
Take tomorrow’s collar and give ‘em back the glare.

Bang, bang, bang, bang! Vamanos, vamanos.
Bang, bang, bang! Vamanos, vamanos.

You told everybody in the neighborhood
what a dirty mistreater. That I was no good.
But someday, baby, you ain’t gonna worry my life anymore.

Doctor or lawyer, I’ll never be.
Life of a drifter - only life for me,
You can have your riches, all the gold you saved.
Cause’ ain’t room for one thing in everybody’s grave.

Bang, bang, bang, bang! Vamanos, vamanos!
Bang, bang, bang! Vamanos, vamanos!

If I had money, like Henry Ford,
Lord, I’d have me a woman, yeah on every road.
But Someday, baby, you ain’t gonna worry my life any more.

Invocation of the dummies, requiem for a head,
Cash in at the corner, piles of street cred.
I get satisfaction everywhere I go.
One day baby you’ll worry me no more.

Bang, bang, bang, bang! Vamanos, vamanos!
Bang, bang, bang! Vamanos, vamanos!


| /  slide up
| \  slide down
| h  hammer-on
| p  pull-off
| ~  vibrato
| +  harmonic
| x  Mute note
===============================================================================
            
Submit corrections


        Electric Worry lessons Hard to play? Try these video lessons and learn fast Electric Worry lessons
        
↑ Back to top | Tablatures and chords for acoustic guitar and electric guitar, ukulele, drums are parodies/interpretations of the original songs. You may use it for private study, scholarship, research or language learning purposes only