» » »

Clutch - Notes From The Trial Of La Curandera Bass

Artists:  A B C D E F G H I J K L M N O P Q R S T U V W X Y Z # 

Notes From The Trial Of La Curandera Bass

(ver. 1) Click to play this song!
Clutch
 Rating:
4/5 (4 votes)

 Notes From The Trial Of La Curandera lessons Tabs too difficult? Try these video lessons and learn fast
 
                Bass

Chorus

G|---------------------------------|--------------------------------|
D|---------------------------------|--------------------------------|
A|---------------------------------|--------------------------------|
E|--7-7-7-7-7-7-7-7--7-7-10--5-5---|--5-5-5-5-5-5-5-5--5-5-0--0-7---|

  Verse
-------------------|-------------------|
-------------------|-------------------|
--5----------------|-------------------|
-------------------|--5----------------|


------------------------------|---------------------------|
------------------------------|---------------------------|
-------------5--5-------------|--------------5------------|
--5-7-7-5-7--------7-5-0--5-7-|--L-5-7-5-7--------5----L--|

Extended Bridge
------------------------------|-----------------------------|
------------------------------|-----------------------------|
-------------3--3-------------|--------------3--------------|
--3-5-5-3-5--------5-3-0--3-5-|--L-3-5-3-5--------5----L----|


Outro
---------------------------------------------|
---------------------------------------------|
----------------------------------5--5--5----|
--7~---5--7~---5--7~---5--7~---5----------5--|

-----------------------------------|
-----------------------------------|
-----------------------------------|
--7---5--7---5--7------------------|
            
Submit corrections


        Notes From The Trial Of La Curandera lessons Hard to play? Try these video lessons and learn fast Notes From The Trial Of La Curandera lessons
        
↑ Back to top | Tablatures and chords for acoustic guitar and electric guitar, ukulele, drums are parodies/interpretations of the original songs. You may use it for private study, scholarship, research or language learning purposes only