» » »

Clutch - Whiskey And Rye Tabs

Artists:  A B C D E F G H I J K L M N O P Q R S T U V W X Y Z # 

Whiskey And Rye Tabs

(ver. 2) Click to play this song!
Clutch
 Rating:
4/5 (4 votes)

 Whiskey And Rye lessons Tabs too difficult? Try these video lessons and learn fast
 
                Band: Clutch


Intro
Slightly Distorted
Both Guitars                             (Listen for timing)
E----------------------------------------------------------------------------|
B----------------------------------------------------------------------------|
G----------------------------------------------------------------------------|
D---------6---6----6-8-6----------6---6--------------------------------------|
A-6-8-8-8---8----8--------6-8-8-8---8----------------------------------------|
E----------------------------------------7-8-9-------------------------------|

Verse 1: No Guitar

Chorus
Distorted
Both Guitars
E----------------------------------------------------------------------------|
B----------------------------------------------------------------------------|
G-8/10-10-10-10\-------8/10-10-10-10\8-13---12-------------------------------|
D-8/10-10-10-10\--3x---8/10-10-10-10\8-13---12-------------------------------|
A-6/-8--8--8--8\-------6/-8--8--8--8\6-11---10---6-8-------------------------|
E----------------------------------------------------------------------------|

Verse 2
Slightly Distorted
Both Guitars
E--------------------------------------------------------------------------|
B--------------------------------------------------------------------------|
G--------------------------------------------------------------------------|
D---------6---6----6-8-6----------6---6------------------------------------|2x
A-6-8-8-8---8----8--------6-8-8-8---8--------------------------------------|
E----------------------------------------7-8-9-----------------------------|

Guitar 1
E------------------------------------------------------------------------- |
B---------------------------------------------------------------------- -- |
G---------------------------------------------------------------------- -- |
D---------6---6----6-8-6----------6---6-------------------------------- -- |
A-6-8-8-8---8----8--------6-8-8-8---8---------------------------------- -- |
E----------------------------------------7-8-9------------------------- -- |
                                                                         |2x
Guitar 2                                                                 |
E---------------------------------------------------------------------- -- |
B---------------------------------------------------------------------- -- |
G-8/10-10-10-10-------------------------------------------------------- -- |
D-8/10-10-10-10-------------------------------------------------------- -- |
A-6/-8--8--8--8-(Let Ring)--------------------------------------------- -- |
E------------------------------------------------------------------------- |

Bridge
Slightly Distorted
Guitar 1
E----------------------------------------------------------------------------|
B----------------------------------------------------------------------------|
G---------7~----------7~-----------------------------------------------------|
D-----6-8---------6-8---------6-8--4x----------------------------------------|
A-8-6---------8-6---------6-8-----------6-8----------------------------------|
E----------------------------------------------------------------------------|

Guitar 2
E----------------------------------------------------------------------------|
B----------------------------------------------------------------------------|
G-10-8-------10-8---------8-10----------8-10---------------------------------|
D-10-8-------10-8---------8-10---4x-----8-10---------------------------------|
A--8-6--------8-6---------6--8----------6--8---------------------------------|
E----------------------------------------------------------------------------|
pm                                         .

Verse 3
Slightly Distorted
Both Guitars
E--------------------------------------------------------------------------|
B--------------------------------------------------------------------------|
G--------------------------------------------------------------------------|
D---------6---6----6-8-6----------6---6------------------------------------|2x
A-6-8-8-8---8----8--------6-8-8-8---8--------------------------------------|
E----------------------------------------7-8-9-----------------------------|

Guitar 1
E------------------------------------------------------------------------- |
B---------------------------------------------------------------------- -- |
G---------------------------------------------------------------------- -- |
D---------6---6----6-8-6----------6---6-------------------------------- -- |
A-6-8-8-8---8----8--------6-8-8-8---8---------------------------------- -- |
E----------------------------------------7-8-9------------------------- -- |
                                                                         |2x
Guitar 2                                                                 |
E---------------------------------------------------------------------- -- |
B---------------------------------------------------------------------- -- |
G-8/10-10-10-10-------------------------------------------------------- -- |
D-8/10-10-10-10-------------------------------------------------------- -- |
A-6/-8--8--8--8-(Let Ring)--------------------------------------------- -- |
E------------------------------------------------------------------------- |

Bridge
Slightly Distorted
Guitar 1
E----------------------------------------------------------------------------|
B----------------------------------------------------------------------------|
G---------7~----------7~-----------------------------------------------------|
D-----6-8---------6-8---------6-8--4x----------------------------------------|
A-8-6---------8-6---------6-8-----------6-8----------------------------------|
E----------------------------------------------------------------------------|

Guitar 2
E----------------------------------------------------------------------------|
B----------------------------------------------------------------------------|
G-10-8-------10-8---------8-10----------8-10---------------------------------|
D-10-8-------10-8---------8-10---4x-----8-10---------------------------------|
A--8-6--------8-6---------6--8----------6--8---------------------------------|
E----------------------------------------------------------------------------|
pm                                         .


Guitar Solo
Distorted
Guitar 1
E----------------------------------------------------------------------------|
B--------------------------13~--14~-----------13~13~13\----------------------|
G-------13~-------13~----------------------13--------------------------------|
D-13-15-----13-15--------------------13-15-----------------------------------|
A----------------------------------------------------------------------------|
E----------------------------------------------------------------------------|

Guitar 2
E----------------------------------------------------------------------------|
B----------------------------------------------------------------------------|
G----------------------------------------------------------------------------|
D--------------------------13~--12~--------------6-8-------------------------|
A--------------------------------------------6-8-----------------------------|
E----------------------------------------------------------------------------|

Guitar 1
E----------------------------------------------------------------------------|
B-----------------------------------------13-11------------------------------|
G----------------/12-13~13~13~13~13\---10-------13---------------------------|
D-13-15~--15-13~-----------------------------------11~11b12r11b12r11---------|
A----------------------------------------------------------------------------|
E----------------------------------------------------------------------------|

Guitar 2
E----------------------------------------------------------------------------|
B----------------------------------------------------------------------------|
G----------------------------------------------------------------------------|
D---------12~-------------6------------13~-12~-------------------------------|
A-13~-----------------6-8---8-6-8~8\-----------------------------------------|
E----------------------------------------------------------------------------|

Guitar 1
E----------------------------------------------------------------------------|
B--------------------------15-13---------------------------------------------|
G---------------13~--------------13-12-11b13r11b12r11----------------13~-----|
D-13-15~--13-15----------------------------------------13-15~--13-15---------|
A----------------------------------------------------------------------------|
E----------------------------------------------------------------------------|

Guitar 2
E----------------------------------------------------------------------------|
B----------------------------------------------------------------------------|
G-----------------------------------7b8r7------------------------------------|
D-----6---6----------------------6--------8-------6--------------------------|
A-6-8---8---8~---------------6-8--------------6-8---8------------------------|
E----------------------------------------------------------------------------|

Guitar 1
E----------------------------------------------------------------------------|
B-16-13----------------------------------13-16------------------------13~-13-|
G-------16~---------------11\------13-15-----------13~-13\8-8-8-10-10--------|
D-------------15b16r15b16r15\---15--------------15---------------------------|
A----------------------------------------------------------------------------|
E----------------------------------------------------------------------------|

Guitar 1
w/Delay & Distortion
E----------------------------------------------------------------------------|
B----------------------------------------------------------------------------|
G-/14b15\---/13b14r13\----/15-13--/15-13-------------------------------------|
D----------------------------------------------------------------------------|
A----------------------------------------------------------------------------|
E----------------------------------------------------------------------------|

Guitar 2
E----------------------------------------------------------------------------|
B----------------------------------------------------------------------------|
G----------13(Let Ring)------------------------------------------------------|
D----------------------------------------------------------------------------|
A----------------------------------------------------------------------------|
E----------------------------------------------------------------------------|
End Solo

Ending Riff
Both Guitars
(Before Guitar, let the weird sounds do their thingy, when guitar comes in do this, and 
have no idea what the effect is)
E----------------------------------------------------------------------------|
B----------------------------------------------------------------------------|
G----------------------------------------------------------------------------|
D----------------------------------------------------------------------------|
A-8-8---6--------------------------------------------------------------------|
E-----8----8-7-6-------------------------------------------------------------|
            
Submit corrections


        Whiskey And Rye lessons Hard to play? Try these video lessons and learn fast Whiskey And Rye lessons
        
↑ Back to top | Tablatures and chords for acoustic guitar and electric guitar, ukulele, drums are parodies/interpretations of the original songs. You may use it for private study, scholarship, research or language learning purposes only