» » »

Clutch - Whiskey And Rye Tabs

Artists:  A B C D E F G H I J K L M N O P Q R S T U V W X Y Z # 

Whiskey And Rye Tabs

(ver. 1) Click to play this song!
Clutch
 Rating:
4/5 (4 votes)

 Whiskey And Rye lessons Tabs too difficult? Try these video lessons and learn fast
 
                Tuning: Standard

h=hammer on
b=bend
~=vibrato
/=slide

Main riff
|-------------------------------------------------|
|-------------------------------------------------|
|-------------------------------------------------|
|----------6---6~~---6h8-6~----------6---6--------|
|--6-8-8-8---8-----8---------6-8-8-8---8---2-3-4--|
|-------------------------------------------------|


Bridge Riff
|---------------------------------|
|---------------------------------|
|----------7~---------7~----------|
|------7-9--------7-9--------7-9--|
|--7-9--------7-9--------7-9------|
|---------------------------------|


Solo
|---------------------------------------------------------------------------|
|---------------------------------------------------------------------------|
|-------13---------13--15b-15b---------13/17-17b-17/13----------------------|
|-13h15------13h15--------------13h15-----------------13h15--15p13----------|
|---------------------------------------------------------------------------|
|---------------------------------------------------------------------------|



|---------------------------------------------------------------------------------|
|---------------------------------------------------------------------------------|
|-----------------------13/20-18----------------------------13-13/20-18-----------|
|--13/18-18-18-18-18-18----------20-18-15b--15b-13h15-13h15-------------20-18-15b-|
|---------------------------------------------------------------------------------|
|---------------------------------------------------------------------------------|

|---------------------------------------------------------------------------|
|---------------------------------------------------------------------------|
|---------------13--20-18----------------------18-20------------------------|
|-13h15--13h15------------20--*15b----15-18-20-------15/18b--18\15b---------|
|---------------------------------------------------------------------------|
|---------------------------------------------------------------------------|
                             *fades in

|----------------------------|
|----------------------------|
|----------------------------|
|--15h18-18/22-22--20-18-15--|
|----------------------------|
|----------------------------|

yeah, im almost positive the solo is all correct, the rest of it is all reverse weird sh*t.

enjoy.
            
Submit corrections


        Whiskey And Rye lessons Hard to play? Try these video lessons and learn fast Whiskey And Rye lessons
        
↑ Back to top | Tablatures and chords for acoustic guitar and electric guitar, ukulele, drums are parodies/interpretations of the original songs. You may use it for private study, scholarship, research or language learning purposes only