» » »

Clutch - Tight Like That Acoustic Tabs

Artists:  A B C D E F G H I J K L M N O P Q R S T U V W X Y Z # 

Tight Like That Acoustic Tabs

(ver. 3) Click to play this song!
Clutch
 Rating:
4.3/5 (6 votes)

 Tight Like That Acoustic lessons Tabs too difficult? Try these video lessons and learn fast
 
                [Intro] Guitar 1
e|---------------|---------------|---------------|---------------------------|(x3)
B|---------------|---------------|---------------|---------------------------|
G|---------------|---------------|---------------|---------------------------|
D|-------------5-|-------------5-|-------------5-|---------------------------|
A|-5h7-5h7-5h7---|--5h7-5h7-5h7--|--5h7-5h7-5h7--|--5h7-5h7-7h5--------------|
E|0---0---0------|-0---0---0-----|-0---0---0-----|-0---0-------7p5-3b-0------|

[Intro] Guitar 2 (after x1 of the above)
e|---------------------------------------------------------------------------|
B|-2-0--------------2-0-------------2-0-------------2-0----------------------|
G|---------------------------------------------------------------------------|
D|---------------------------------------------------------------------------|
A|---------------------------------------------------------------------------|
E|---------------------------------------------------------------------------|

[Intro] Guitar 2
e|---------12-12--------12-12-12-12|----------12-12----------------3---------|
B|-2-0-----12-12---2-0--12-12-12-12|--2-0-----12-12---2-0-----------3/5------|
G|---------------------------------|-----------------------------------------|
D|---------------------------------|-----------------------------------------|
A|---------------------------------|-----------------------------------------|
E|---------------------------------|-----------------------------------------|

[Verse 1] (bass, technically)
e|---------------------------------------------------------------------------|(x8)
B|---------------------------------------------------------------------------|
G|---------------------------------------------------------------------------|
D|---------------------------------------------------------------------------|
A|-7-7-----------------------------------------------------------------------|
E|0---7-5-3b-0--3b-----------------------------------------------------------|

[Chorus 1](both guitars)
e|3b-0------------|--3-3-0---------------------------------------------------|(x4)
B|----------3-3-5-|------------3-3-------------------------------------------|
G|-----2/4-4-4----|-------2/4-4-4--------------------------------------------|
D|----------------|----------------------------------------------------------|
A|----------------|----------------------------------------------------------|
E|----------------|----------------------------------------------------------|

[Verse 2]
e|---------------------------------------------------------------------------|(x8)
B|---------------------------------------------------------------------------|
G|---------------------------------------------------------------------------|
D|---------------------------------------------------------------------------|
A|-7-7-----------------------------------------------------------------------|
E|0---7-5-3b-0--3b-----------------------------------------------------------|

[Chorus 2]
e|3b-0------------|--3-3-0---------------------------------------------------|(x4)
B|----------3-3-5-|------------3-3-------------------------------------------|
G|-----2/4-4-4----|-------2/4-4-4--------------------------------------------|
D|----------------|----------------------------------------------------------|
A|----------------|----------------------------------------------------------|
E|----------------|----------------------------------------------------------|

(Bridge/Solo - Guitar 1)
e|---------------|---------------|---------------|---------------------------|(x4)
B|---------------|---------------|---------------|---------------------------|
G|---------------|---------------|---------------|---------------------------|
D|-------------5-|-------------5-|-------------5-|---------------------------|
A|-5h7-5h7-5h7---|--5h7-5h7-5h7--|--5h7-5h7-5h7--|--5h7-5h7-7h5--------------|
E|0---0---0------|-0---0---0-----|-0---0---0-----|-0---0-------7p5-3b-0------|

(Bridge/Solo - Guitar 2 - comes in after x1 of the above)
e|-------------------------------|-12-12/-----------------------------------|
B|-------------------------------|-12-12/-----------------------------------|
G|-------------------------------|------------------------------------------|
D|8-8-8-8-8-8-8-8-7-5------------|------------------------------------------|
A|-------------------7-5---------|------------------------------------------|
E|--------------------7-5/3b-0-0-|------------------------------------------|

e|-------------------------------|------------------------------------------|
B|-------------------------------|------------------------------------------|
G|9-9-9-9-9-9-9-9-7--------------|------------------------------------------|
D|-----------------8-8-8-8-8-----|-7-5--------------------------------------|
A|-------------------------------|--7-5-------------------------------------|
E|-------------------------------|----7-5-3b-0-0----------------------------|

(TIGHT LIKE THAT, TIGHT LIKE THAT)
e|12-12------12-12-12-12-12------|--12-12---12-12-12-12-12------------------|
B|12-12------12-12-12-12-12------|-12-12---12-12-12-12-12-------------------|
G|-------------------------------|------------------------------------------|
D|-------------------------------|------------------------------------------|
A|-------------------------------|------------------------------------------|
E|-------------------------------|------------------------------------------|

e|--12--12--12--12--12---10--10--10--10-10-|--15-15-15-15-15-15-15-15-15-12-12-12---|
B|12--12--12--12--12--12---10--10--10------|--15-15-15-15-15-15-15-15-15-12-12-12---|
G|-----------------------------------------|----------------------------------------|
D|-----------------------------------------|----------------------------------------|
A|-----------------------------------------|----------------------------------------|
E|-----------------------------------------|----------------------------------------|

e|10--10--10-----7-----------------------------------------------------------|
B|--10--10--10---7-----------------------------------------------------------|
G|---------------------------------------------------------------------------|
D|---------------------------------------------------------------------------|
A|---------------------------------------------------------------------------|
E|---------------------------------------------------------------------------|

[Chorus 3]
e|3b-0-------------|-3-3-0----------------------------------------------------|(x4)
B|----------3-3-5--|-----------3-3--------------------------------------------|
G|-----2/4-4-4-----|------2/4-4-4---------------------------------------------|
D|-----------------|----------------------------------------------------------|
A|-----------------|----------------------------------------------------------|
E|-----------------|----------------------------------------------------------|

[Outro] (Guitar 1 (bass techincally)
e|---------------------------------------------------------------------------|(x12)
B|---------------------------------------------------------------------------|
G|---------------------------------------------------------------------------|
D|---------------------------------------------------------------------------|
A|-7-5-7------7-7-5-7--7-5-7-------------------------------------------------|
E|0------0-0-0-------0-------0-5-5-5-5-5-3b----------------------------------|            
Submit corrections


        Tight Like That Acoustic lessons Hard to play? Try these video lessons and learn fast Tight Like That Acoustic lessons
        
↑ Back to top | Tablatures and chords for acoustic guitar and electric guitar, ukulele, drums are parodies/interpretations of the original songs. You may use it for private study, scholarship, research or language learning purposes only