» » »

Clutch - Tight Like That Tabs

Artists:  A B C D E F G H I J K L M N O P Q R S T U V W X Y Z # 

Tight Like That Tabs

(ver. 1) Click to play this song!
Clutch
 Rating:
4/5 (4 votes)

 Tight Like That lessons Tabs too difficult? Try these video lessons and learn fast
 
                Tight Like That         by Clutch
                        from the album "Clutch"
                        words and music by Tim Sult, Dan Maines,
                                Neil Fallon, and Jean-Paul Gaster

Note: A great deal of this song is actually played by the bass and the organ,
      not the guitar. I tabbed those parts out for guitar and indicated
      what is what.

Main Verse (Notes on E string are bass, other notes are organ)
E |---------------------------------|
B |--------3------------------------|
G |.-------------3-2-0-------------.|
D |.---------------------2---------.|
A |---------------------------------|
E |---0-------------------------3^--|

Prechorus (We'll call this Guitar One. This part is also used in the Chorus.)
E |-------------------------------------------------|
B |-------------------------------------------------|
G |.-----------------------------------------------.|
D |.--5^----2----0h2--2-2---0h2-2--0h2-------------.|
A |-------------------------------------2--0--------|
E |-------------------------------------------3~~~--|

Prechorus (We'll call this Guitar Two. It is actually bass, but it's louder.)
E |--------------------------------------|
B |--------------------------------------|
G |.------------------------------------.|
D |.------0h2-------0h2-------0h2-------.|
A |--------------------------------------|
E |---0---------0---------0---------3^---|

Prechorus Ending (bass and guitar)
E ----------------------------------------------------------------|
B ----------------------------------------------------------------|
G ----------------------------------------------------------------|
D ----2--0--------------------------------------------------------|
A ----------2--0--------------------------------------------------|
E ----------------3^---0------------------------------------------|

Chorus (This is actually bass. Another guitar plays Guitar One from the
prechorus section. On the first time you play it, end on that E note. On
the second, end on the G note, and then repeat like that.)
E |-----------------------------------|---|----------------------|
B |-----------------------------------|---|----------------------|
G |-----------------------------------|---|----------------------|
D |-------0h2-------0h2-------0h2---0-|-2-|----------------------|
A |-----------------------------------|---|----------------------|
E |---0---------0---------0-----------|---|---3------------------|

Final Verse (Guitar and Bass)
E |------------------------------------|
B |------------------------------------|
G |.------------3-2-0-----------------.|
D |.------0h2-----------0h2-2--0h2-2--.|
A |------------------------------------|
E |---0--------------------------------|

--
 |  Standard disclaimer: The views of this user are strictly his own.
 |  -=-=> (This address will be INVALID after March 1, 1996) <=-=-
            
Submit corrections


        Tight Like That lessons Hard to play? Try these video lessons and learn fast Tight Like That lessons
        
↑ Back to top | Tablatures and chords for acoustic guitar and electric guitar, ukulele, drums are parodies/interpretations of the original songs. You may use it for private study, scholarship, research or language learning purposes only