» » »

Charlie Puth - One Call Away Tabs

Artists:  A B C D E F G H I J K L M N O P Q R S T U V W X Y Z # 

One Call Away Tabs

(ver. 1) Click to play this song!
Charlie Puth
 Rating:
4.3/5 (23 votes)

 One Call Away  lessons Tabs too difficult? Try these video lessons and learn fast
 
                Tuning:Standard Tuning 

CAPO : 1

e|-0----------|---|-0--0-|-1--0--------1-|-0-|---|
B|----3--1--1-|-3-|------|-------3--1----|---|-3-|
G|------------|---|------|---------------|---|---|
D|------------|---|------|---------------|---|---|
A|------------|---|------|---------------|---|---|
E|------------|---|------|---------------|---|---|
I'm only one| call| away| I'll be there to save| the| day

e|-0-------|------|----0--0-|-0----------|---|------|
B|----3--1-|-1--1-|-3-------|----3--1--1-|-3-|-1--1-|
G|---------|------|---------|------------|---|------|
D|---------|------|---------|------------|---|------|
A|---------|------|---------|------------|---|------|
E|---------|------|---------|------------|---|------|
Superman| got no-|thing on me| I'm only one| call| away

e|-0--0-------|-------0-|------|-0--0-------|------0--1--1-|
B|-------3--3-|-1--3----|-0----|-------3--3-|-1--3---------|
G|------------|---------|----2-|------------|--------------|
D|------------|---------|------|------------|--------------|
A|------------|---------|------|------------|--------------|
E|------------|---------|------|------------|--------------|
Call me, baby| if you need| a friend| I just wanna give you love

e|-3--3-|-1--1-|-0--0-|-0--0----|---------|-0-|------|
B|------|------|------|-------3-|-1--1--3-|---|-1----|
G|------|------|------|---------|---------|---|----2-|
D|------|------|------|---------|---------|---|------|
A|------|------|------|---------|---------|---|------|
E|------|------|------|---------|---------|---|------|
Come on| come on| come on| Reaching out| to you so| take| a chance

e|------------------|-------------0----|
B|-------1--1--3--3-|-------1--3-----1-|
G|-2--2-------------|-2--2-------------|
D|------------------|------------------|
A|------------------|------------------|
E|------------------|------------------|
No matter where you go| You know you're not alone

e|-0----------|---|-0--0-|-1--0--------1-|-0-|---|
B|----3--1--1-|-3-|------|-------3--1----|---|-3-|
G|------------|---|------|---------------|---|---|
D|------------|---|------|---------------|---|---|
A|------------|---|------|---------------|---|---|
E|------------|---|------|---------------|---|---|
I'm only one| call| away| I'll be there to save| the| day

e|-0-------|------|----0--0-|-0----------|---|------|
B|----3--1-|-1--1-|-3-------|----3--1--1-|-3-|-1--1-|
G|---------|------|---------|------------|---|------|
D|---------|------|---------|------------|---|------|
A|---------|------|---------|------------|---|------|
E|---------|------|---------|------------|---|------|
Superman| got no-|thing on me| I'm only one| call| away

e|-0--0----|---------|-0-|------|-0--0-------|------|-0-|
B|-------3-|-1--1--3-|---|-1----|-------3--1-|-1--3-|---|
G|---------|---------|---|----2-|------------|------|---|
D|---------|---------|---|------|------------|------|---|
A|---------|---------|---|------|------------|------|---|
E|---------|---------|---|------|------------|------|---|
Come along| with me and| don't| be scared| I just wanna| set you| free

e|-3--3-|-1--1-|-0--0-|-0--0----|---------|-0-|------|
B|------|------|------|-------3-|-1--1--3-|---|----1-|
G|------|------|------|---------|---------|---|-2----|
D|------|------|------|---------|---------|---|------|
A|------|------|------|---------|---------|---|------|
E|------|------|------|---------|---------|---|------|
Come on| come on| come on| You and me| can make it| an-| nywhere

e|------|------------|---|---------|---|
B|-0--1-|-1--1--0----|-0-|-1--3--1-|-1-|
G|------|----------2-|---|---------|---|
D|------|------------|---|---------|---|
A|------|------------|---|---------|---|
E|------|------------|---|---------|---|
For now| we can stay here| for| a while| ay'

e|---------|------------|------------|
B|-0--0--1-|-1--1--0----|-0--1--3--1-|
G|---------|----------2-|------------|
D|---------|------------|------------|
A|---------|------------|------------|
E|---------|------------|------------|
Cause you know| I just wanna| see you smile

e|------------------|----3--3--3--0-------|
B|-------1--1--3--3-|----------------3--1-|
G|-2--2-------------|-2-------------------|
D|------------------|---------------------|
A|------------------|---------------------|
E|------------------|---------------------|
No matter where you go| You know you're not alone

e|----3--0----|---|-0--0-|-1--0--------1-|-0-|---|
B|-1--------1-|-3-|------|-------3--1----|---|-3-|
G|------------|---|------|---------------|---|---|
D|------------|---|------|---------------|---|---|
A|------------|---|------|---------------|---|---|
E|------------|---|------|---------------|---|---|
I'm only one| call| away| I'll be there to save| the| day

e|-0-------|------|----0--0-|-0----------|---|------|
B|----3--1-|-1--1-|-3-------|----3--1--1-|-3-|-1--1-|
G|---------|------|---------|------------|---|------|
D|---------|------|---------|------------|---|------|
A|---------|------|---------|------------|---|------|
E|---------|------|---------|------------|---|------|
Superman| got no-|thing on me| I'm only one| call| away

e|----0--3--5-|-8-|-0--0----|----0--3--5-|-8--0-|-0----|
B|-1----------|---|-------3-|-1----------|------|----3-|
G|------------|---|---------|------------|------|------|
D|------------|---|---------|------------|------|------|
A|------------|---|---------|------------|------|------|
E|------------|---|---------|------------|------|------|
And when you're weak| I'll be strong|I'm gonna keep| holding| on

e|----0--3-|-5--8-|-8--8-|-0--0----|-----|
B|-1-------|------|------|-------3-|-3h5-|
G|---------|------|------|---------|-----|
D|---------|------|------|---------|-----|
A|---------|------|------|---------|-----|
E|---------|------|------|---------|-----|
Now don't you| worry| it won't| be long| Darling

e|----------------0-------|----3--3--5-|-0-------|
B|----------1--3-----1--3-|-1----------|----3--1-|
G|-2--2--2----------------|------------|---------|
D|------------------------|------------|---------|
A|------------------------|------------|---------|
E|------------------------|------------|---------|
And when you feel like hope is gone| Just run into| my arms

e|-0----------|---|-0--0-|-1--0--------1-|-0-|---|
B|----3--1--1-|-3-|------|-------3--1----|---|-3-|
G|------------|---|------|---------------|---|---|
D|------------|---|------|---------------|---|---|
A|------------|---|------|---------------|---|---|
E|------------|---|------|---------------|---|---|
I'm only one| call| away| I'll be there to save| the| day

e|-5--0----|------|----0--0-|-0----------|
B|-------3-|-1--1-|-3-------|----3--1--1-|
G|---------|------|---------|------------|
D|---------|------|---------|------------|
A|---------|------|---------|------------|
E|---------|------|---------|------------|
Superman| got no-|thing on me| I'm only one

e|-0-------|----------------0h1h3-|-------------|-5--0-------|
B|----3--1-|-1h3(let ring)--------|-3(let ring)-|-------3--1-|
G|---------|----------------------|-------------|------------|
D|---------|----------------------|-------------|------------|
A|---------|----------------------|-------------|------------|
E|---------|----------------------|-------------|------------|
I'm only| oneeeeeeee| callll| away

e|-1--0--------1-|-0-|-0----|-5--0----|------|-3--5--0-|
B|-------3--1----|---|----3-|-------3-|-1--1-|---------|
G|---------------|---|------|---------|------|---------|
D|---------------|---|------|---------|------|---------|
A|---------------|---|------|---------|------|---------|
E|---------------|---|------|---------|------|---------|
I'll be there to| save| the| day| Superman| got no-|thing on me

e|-0----------|---|------|
B|----3--1--1-|-3-|-1--1-|
G|------------|---|------|
D|------------|---|------|
A|------------|---|------|
E|------------|---|------|
I'm only one| call| away

e|-0--3----|---|---|------|
B|-------3-|-1-|-3-|-1--1-|
G|---------|---|---|------|
D|---------|---|---|------|
A|---------|---|---|------|
E|---------|---|---|------|
I'm only| one| call| away

            
Submit corrections


        One Call Away  lessons Hard to play? Try these video lessons and learn fast One Call Away  lessons
        
↑ Back to top | Tablatures and chords for acoustic guitar and electric guitar, ukulele, drums are parodies/interpretations of the original songs. You may use it for private study, scholarship, research or language learning purposes only