» » »

Charlie Puth - One Call Away Tabs

Artists:  A B C D E F G H I J K L M N O P Q R S T U V W X Y Z # 

One Call Away Tabs

(ver. 2) Click to play this song!
Charlie Puth
 Rating:
4.3/5 (26 votes)

 One Call Away  lessons Tabs too difficult? Try these video lessons and learn fast
 
                [Intro]

e|-------------------------|---------------------------------------|
B|--------1----3---1-------|-------------------1----1---3----------|
G|--------0----0---0-------|-------------------2----0---0----------|
D|--------2----0---2-------|-------------------3----2---0----------|
A|--------3----2---0-------|-------------------3----0---2----------|
E|-------------------------|---------------------------------------|
I'm only one call away....   I'll be there to save the day....

e|--------------------------|--------------------------------------|
B|------------1---3----1----|--------------1---3--1----------------|
G|------------0---0----0----|--------------0---0--0----------------|
D|------------2---0----2----|--------------2---0--2----------------|
A|------------3---2----0----|--------------3---2--0----------------|
E|--------------------------|--------------------------------------|
Superman got nothing on me..  I'm only one call away....


[Verse]

e|-----s--------s------------s--------s----------------------------|
B|--1------3-3-------------1-----1-1-------------------------------|
G|--2------0-0-------------0-----2-2-------------------------------|
D|--2------0-0-------------2-----3-3-------------------------------|
A|--0------2---------------3-----3---------------------------------|
E|-----------------------------------------------------------------|
      Call me baby if you need a friend...

e|-----s--------s-----------------s---------------s----------------|
B|--1------3-3-------------1--------------1-1----------------------|
G|--2------0-0-------------0--------------2-2----------------------|
D|--2------0-0-------------2--------------3-3----------------------|
A|--0------2---------------3--------------3------------------------|
E|-----------------------------------------------------------------|
       I just wanna give you love, common common common. 

e|-----s--------s------------s--------s----------------------------|
B|--1------3-3-------------1-----1-1-------------------------------|
G|--2------0-0-------------0-----2-2-------------------------------|
D|--2------0-0-------------2-----3-3-------------------------------|
A|--0------2---------------3-----3---------------------------------|
E|-----------------------------------------------------------------|
       Reaching out to you, so take a chance


[Refrain]

      (prolong)              (prolong) 
e|-----------------------------------------------------------------|
B|--------1----------------------3---------------------------------|
G|--------2----------------------0---------------------------------|
D|--------3----------------------0---------------------------------|
A|--------3----------------------2---------------------------------|
E|-----------------------------------------------------------------|
No matter where you go, you know your not alone...


[Chorus]

e|-----------s---s----s----|------------s----------s---s----s------|
B|--------1----3---1-------|-------------------1----1---3----------|
G|--------0----0---0-------|-------------------2----0---0----------|
D|--------2----0---2-------|-------------------3----2---0----------|
A|--------3----2---0-------|-------------------3----0---2----------|
E|-------------------------|---------------------------------------|
I'm only one call away....   I'll be there to save the day....

e|---s---------s----s----s--|------------s--s---s------------------|
B|------------1---3----1----|--------------1---3--1----------------|
G|------------0---0----0----|--------------0---0--0----------------|
D|------------2---0----2----|--------------2---0--2----------------|
A|------------3---2----0----|--------------3---2--0----------------|
E|--------------------------|--------------------------------------|
Superman got nothing on me..  I'm only one call away....


[Verse]

e|-----s---------------s------------s--------s---------------------|
B|-1-1--------3-3---------------1-1------1-1-----------------------|
G|-2-2--------0-0---------------0-0------2-2-----------------------|
D|-2-2--------0-0---------------2-2------3-3-----------------------|
A|-0----------2-----------------3--------3-------------------------|
E|-----------------------------------------------------------------|
       Come along with me and don't be scared
           
e|-----s--------s-----------------s---------------s----------------|
B|--1-1-----3-3-------------1-1-------------1-1--------------------|
G|--2-2-----0-0-------------0-0-------------2-2--------------------|
D|--2-2-----0-0-------------2-2-------------3-3--------------------|
A|--0-------2---------------3---------------3----------------------|
E|-----------------------------------------------------------------|
        I just wanna set you free, common common common
                
e|-----s---------------s------------s--------s---------------------|
B|-1-1--------3-3---------------1-1------1-1-----------------------|
G|-2-2--------0-0---------------0-0------2-2-----------------------|
D|-2-2--------0-0---------------2-2------3-3-----------------------|
A|-0----------2-----------------3--------3-------------------------|
E|-----------------------------------------------------------------|
        You and me can make it anywhere..
                
e|-----s---------------s------------s--------s---------------------|
B|-1-1--------3-3---------------1-1------1-1-----------------------|
G|-2-2--------0-0---------------0-0------2-2-----------------------|
D|-2-2--------0-0---------------2-2------3-3-----------------------|
A|-0----------2-----------------3--------3-------------------------|
E|-----------------------------------------------------------------|
        For now, we can stay here for a while..
                
e|-----s---------------s------------s--------s---------------------|
B|-1-1--------3-3---------------1-1------1-1-----------------------|
G|-2-2--------0-0---------------0-0------2-2-----------------------|
D|-2-2--------0-0---------------2-2------3-3-----------------------|
A|-0----------2-----------------3--------3-------------------------|
E|-----------------------------------------------------------------|
         'cause you know, I just wanna see you smile..

                 
[Refrain]

      (prolong)              (prolong) 
e|-----------------------------------------------------------------|
B|--------1----------------------3---------------------------------|
G|--------2----------------------0---------------------------------|
D|--------3----------------------0---------------------------------|
A|--------3----------------------2---------------------------------|
E|-----------------------------------------------------------------|
No matter where you go, you know your not alone...


[Chorus]

e|-----------s---s----s----|------------s----------s---s----s------|
B|--------1----3---1-------|-------------------1----1---3----------|
G|--------0----0---0-------|-------------------2----0---0----------|
D|--------2----0---2-------|-------------------3----2---0----------|
A|--------3----2---0-------|-------------------3----0---2----------|
E|-------------------------|---------------------------------------|
I'm only one call away....   I'll be there to save the day....

e|---s---------s----s----s--|------------s--s---s------------------|
B|------------1---3----1----|--------------1---3--1----------------|
G|------------0---0----0----|--------------0---0--0----------------|
D|------------2---0----2----|--------------2---0--2----------------|
A|------------3---2----0----|--------------3---2--0----------------|
E|--------------------------|--------------------------------------|
Superman got nothing on me..  I'm only one call away....


[Bridge]

e|-----------------s----s------s-------|-----------------s----s------s---|
B|-------------1>3---1-------3------|-------------1>3---1-------3--|
G|-------------2>4---2-------0------|-------------2>4---2-------0--|
D|-------------3>5---2-------0------|-------------3>5---2-------0--|
A|-------------3>5---0-------2------|-------------3>5---0-------2--|
E|-------------------------------------|---------------------------------|
And when your weak, I'll be strong..  I'm gonna keep, holding on...

e|-----------------s----s------s----|
B|-------------1>3---1-------3------|
G|-------------2>4---2-------0------|
D|-------------3>5---2-------0------|
A|-------------3>5---0-------2------|
E|----------------------------------|
 Now don't you worry, it won't be long..

 
[Refrain 2]

      (prolong)                               
e|-------------------------------------------------------------|
B|--------1----------------------------------------------------|
G|--------2----------------------------------------------------|
D|--------3----------------------------------------------------|
A|--------3----------------------------------------------------|
E|-------------------------------------------------------------|
Darling, when you feel like hope is gone...

      (prolong)                               
e|-------------------------------------------------------------|
B|--------3----------------------------------------------------|
G|--------0----------------------------------------------------|
D|--------0----------------------------------------------------|
A|--------2----------------------------------------------------|
E|-------------------------------------------------------------|
Just run into my arms!


[Chorus]

(Strumming part)

        C    G    Am7
I'm only one call away
                  F    Am7 G
I'll be there to save the day
             C   G7     Am7
Superman got nothing on me
        F           G        C   G    Am7
I'm only one, I'm only one, one call away
                  F    Am7  G
I'll be there to save the day
              C   G     Am7
Superman got nothing on me
          F   Dm   C
I'm only one call away
 
                                      (prolong)
e|------------------------------------------------------------|
B|------------------1-------3-----------1---------------------|
G|------------------2-------2-----------0---------------------|
D|------------------3-------0-----------2---------------------|
A|------------------3-------0-----------3---------------------|
E|------------------------------------------------------------|
      I'm only     one     call        away            
Submit corrections


        One Call Away  lessons Hard to play? Try these video lessons and learn fast One Call Away  lessons
        
↑ Back to top | Tablatures and chords for acoustic guitar and electric guitar, ukulele, drums are parodies/interpretations of the original songs. You may use it for private study, scholarship, research or language learning purposes only