» » »

Bryan Adams - Ultimate Love Tabs

Artists:  A B C D E F G H I J K L M N O P Q R S T U V W X Y Z # 

Ultimate Love Tabs

(ver. 1) Click to play this song!
Bryan Adams
 Rating:
4.4/5 (11 votes)

 Ultimate Love lessons Tabs too difficult? Try these video lessons and learn fast
 
                Tuning: Standard (EADGBe)

[Verse] x2
e|--------------------------|-------------------------|
B|--------------------------|-------------------------|
G|--------------------------|-------------------------|
D|-----7~-------------------|----7~-------------------|
A|--------10--7-10--7-10----|-------10--7-10--7-10----|
E|--------------------------|-------------------------|

e|--------------------------|-------------------------|
B|--------------------------|-------------------------|
G|--------------------------|-------------------------|
D|--------------------------|-------------------------|
A|-----7~-------------------|----7~-------------------|
E|--------10--7-10--7-10----|-------10--7-10--7-10----|


[Verse]
e|--------------------------|-------------------------|
B|--------------------------|-------------------------|
G|--------------------------|-------------------------|
D|--------------------------|-------------------------|
A|-----7~-------------------|----7~-------------------|
E|--------10--7-10--7-10----|-------------------------|


[Chorus]
e|--------------------------|-------------------------|
B|--------------------------|-------------------------|
G|--------------------------|-------------------------|
D|-----4-5-2~-----4-5-2~----|-------------------------|
A|--------------------------|--7~------------------7~-|
E|--------------------------|-----10--7-10--7-10------|

            
Submit corrections


        Ultimate Love lessons Hard to play? Try these video lessons and learn fast Ultimate Love lessons
        
↑ Back to top | Tablatures and chords for acoustic guitar and electric guitar, ukulele, drums are parodies/interpretations of the original songs. You may use it for private study, scholarship, research or language learning purposes only