» » »

Bryan Adams - Thunderbolt Tabs

Artists:  A B C D E F G H I J K L M N O P Q R S T U V W X Y Z # 

Thunderbolt Tabs

(ver. 1) Click to play this song!
Bryan Adams
 Rating:
4.3/5 (13 votes)

 Thunderbolt  lessons Tabs too difficult? Try these video lessons and learn fast
 
                Tuning : Standard (EADGBe)

0:02

e|-----------------------12-12-------14-|
B|-----------------10s12-------10s13----|
G|--------------------------------------|   4
D|-----7-7-5-5--------------------------| Times
A|-0-0---------7-7----------------------|
E|--------------------------------------|
   . .
  "Like a thunderbolt..."

0:16

e|---------------------------------------------------------------------------------|
B|---------------------------------------------------------------------------------|
G|---------------------------------------------------------------------------------|
D|---------------------------------------------------------------------------------|
A|--------------------------------2h4s5-5-2------------------------------2h4s5-5-2-|
E|--------------------------------0h2s3-3-0------------------------------0h2s3-3-0-|

  "Like nothin' you could imagine"         "A shiver lookin' for a spine"

0:24

e|------------------------------------------------------------------------------------------|
B|------------------------------------------------------------------------------------------|
G|------------------------------------------------------------------------------------------|
D|------------------------------------------------------------------------------------------|
A|--------------------------------------------------------------------------5-3-5-5-3-5-5-3-|
E|------------------------------------------------------------------------------------------|
                                                                              .     .     .
  "Hold onto the throttle, capture lightnin' in a bottle, lay it all on the line"

0:30

e|-----------------------12-12-------14-|
B|-----------------10s12-------10s13----|
G|--------------------------------------|   4
D|-----7-7-5-5--------------------------| Times
A|-0-0---------7-7----------------------|
E|--------------------------------------|
   . .
  "Like a thunderbolt..."

0:46

e|------------------------------------------------------------------------------------|
B|------------------------------------------------------------------------------------|
G|------------------------------------------------------------------------------------|
D|-----------------------------2h5-5-5-5-2--------------------------------------------|
A|-----------------------------0h3-3-3-3-0--------------------------------2-5-5-5-5-2-|
E|------------------------------------------------------------------------0h3-3-3-3-0-|

  "Like manna from the heavens"           "The sweetest grape on the vine"

0:53

e|----------------------------------------------------------------------------|
B|----------------------------------------------------------------------------|
G|----------------------------------------------------------------------------|
D|----------------------------------------------------------------------------|
A|------------------------------------------------------------5-3-5-5-3-5-5-3-|
E|----------------------------------------------------------------------------|
                                                                .     .     .
  "Gotta risk it for the biscuit and I don't wanna miss it..."

1:00

e|-----------------------12-12-------14-|
B|-----------------10s12-------10s13----|
G|--------------------------------------|   4
D|-----7-7-5-5--------------------------| Times
A|-0-0---------7-7----------------------|
E|--------------------------------------|
   . .
  "Like a thunderbolt..."

(Guitar break)

Solo (Still not figured it out ! Getting it done soon)

1:43

e|-----------------------12-12-------14-|
B|-----------------10s12-------10s13----|
G|--------------------------------------|   8
D|-----7-7-5-5--------------------------| Times
A|-0-0---------7-7----------------------|
E|--------------------------------------|
   . .
  "Like a thunderbolt..."            
Submit corrections


        Thunderbolt  lessons Hard to play? Try these video lessons and learn fast Thunderbolt  lessons
        
↑ Back to top | Tablatures and chords for acoustic guitar and electric guitar, ukulele, drums are parodies/interpretations of the original songs. You may use it for private study, scholarship, research or language learning purposes only