» » »

Bryan Adams - Nobodys Girl Tabs

Artists:  A B C D E F G H I J K L M N O P Q R S T U V W X Y Z # 

Nobodys Girl Tabs

(ver. 1) Click to play this song!
Bryan Adams
 Rating:
4.4/5 (14 votes)

 Nobodys Girl lessons Tabs too difficult? Try these video lessons and learn fast
 
                [Intro]

e|-----------|-----|
B|-----------|--7--|
G|--4--6--8--|-----|
D|-----------|-----| (2x)
A|-----------|-----|
E|-----------|-----|

Guitar nº2:

e|-------------------|-------------------|
B|-------------------|-------------------|
G|--4-4-4-4-4-4-4-4--|--2-2-2-2-2-2-2-2--|
D|--4-4-4-4-4-4-4-4--|--4-4-4-4-4-4-4-4--| (2x)
A|--2-2-2-2-2-2-2-2--|--4-4-4-4-4-4-4-4--|
E|-------------------|--2-2-2-2-2-2-2-2--|


[Verse]

e|--2---2-2--|-------------|
B|--4---4-4--|-------------|
G|--4---4-4--|--2--2--2-2--|
D|--4---4-4--|--4--4--4-4--| (2x)
A|--2---2-2--|--4--4--4-4--|
E|-----------|--2--2--2-2--|


[Chorus]

e|--0--0--0-0-0--|--0--0--0-0-0--|--2--2--2-2-2--|--0--0--0-0-0--| |
B|--3--3--3-3-3--|--2--2--2-2-2--|--2--2--2-2-2--|--0--0--0-0-0--| |
G|--2--2--2-2-2--|--2--2--2-2-2--|--2--2--2-2-2--|--1--1--1-1-1--| |
D|--0--0--0-0-0--|--2--2--2-2-2--|--4--4--4-4-4--|--2--2--2-2-2--| |
A|---------------|--0--0--0-0-0--|--4--4--4-4-4--|--2--2--2-2-2--| |
E|---------------|---------------|--2--2--2-2-2--|--0--0--0-0-0--| |
                                                                   | (2x)
e|--0--0--0-0-0--|--0--0--0-0-0--|--0--0--0-0-0--|--0--0--0-0-0--| |
B|--3--3--3-3-3--|--2--2--2-2-2--|--0--0--0-0-0--|--0--0--0-0-0--| | 
G|--2--2--2-2-2--|--2--2--2-2-2--|--1--1--1-1-1--|--1--1--1-1-1--| |
D|--0--0--0-0-0--|--2--2--2-2-2--|--2--2--2-2-2--|--2--2--2-2-2--| |
A|---------------|--0--0--0-0-0--|--2--2--2-2-2--|--2--2--2-2-2--| | 
E|---------------|---------------|--0--0--0-0-0--|--0--0--0-0-0--| |


[Instrumental]

e|-----------|-----|
B|-----------|--7--|
G|--4--6--8--|-----|
D|-----------|-----| (2x)
A|-----------|-----|
E|-----------|-----|

Guitar nº2:

e|-------------------|-------------------|
B|-------------------|-------------------|
G|--4-4-4-4-4-4-4-4--|--2-2-2-2-2-2-2-2--|
D|--4-4-4-4-4-4-4-4--|--4-4-4-4-4-4-4-4--| (2x)
A|--2-2-2-2-2-2-2-2--|--4-4-4-4-4-4-4-4--|
E|-------------------|--2-2-2-2-2-2-2-2--|


[Verse]

e|--2---2-2--|-------------|
B|--4---4-4--|-------------|
G|--4---4-4--|--2--2--2-2--|
D|--4---4-4--|--4--4--4-4--| (2x)
A|--2---2-2--|--4--4--4-4--|
E|-----------|--2--2--2-2--|


[Chorus]

e|--0--0--0-0-0--|--0--0--0-0-0--|--2--2--2-2-2--|--0--0--0-0-0--| |
B|--3--3--3-3-3--|--2--2--2-2-2--|--2--2--2-2-2--|--0--0--0-0-0--| |
G|--2--2--2-2-2--|--2--2--2-2-2--|--2--2--2-2-2--|--1--1--1-1-1--| |
D|--0--0--0-0-0--|--2--2--2-2-2--|--4--4--4-4-4--|--2--2--2-2-2--| |
A|---------------|--0--0--0-0-0--|--4--4--4-4-4--|--2--2--2-2-2--| |
E|---------------|---------------|--2--2--2-2-2--|--0--0--0-0-0--| |
                                                                   | (2x)
e|--0--0--0-0-0--|--0--0--0-0-0--|--0--0--0-0-0--|--0--0--0-0-0--| |
B|--3--3--3-3-3--|--2--2--2-2-2--|--0--0--0-0-0--|--0--0--0-0-0--| | 
G|--2--2--2-2-2--|--2--2--2-2-2--|--1--1--1-1-1--|--1--1--1-1-1--| |
D|--0--0--0-0-0--|--2--2--2-2-2--|--2--2--2-2-2--|--2--2--2-2-2--| |
A|---------------|--0--0--0-0-0--|--2--2--2-2-2--|--2--2--2-2-2--| | 
E|---------------|---------------|--0--0--0-0-0--|--0--0--0-0-0--| |


[Outro]

e|-----------|-----|
B|-----------|--7--|
G|--4--6--8--|-----|
D|-----------|-----| (4x)
A|-----------|-----|
E|-----------|-----|

Guitar nº2:

e|-------------------|-------------------|
B|-------------------|-------------------|
G|--4-4-4-4-4-4-4-4--|--2-2-2-2-2-2-2-2--|
D|--4-4-4-4-4-4-4-4--|--4-4-4-4-4-4-4-4--| (4x)
A|--2-2-2-2-2-2-2-2--|--4-4-4-4-4-4-4-4--|
E|-------------------|--2-2-2-2-2-2-2-2--|
            
Submit corrections


        Nobodys Girl lessons Hard to play? Try these video lessons and learn fast Nobodys Girl lessons
        
↑ Back to top | Tablatures and chords for acoustic guitar and electric guitar, ukulele, drums are parodies/interpretations of the original songs. You may use it for private study, scholarship, research or language learning purposes only