» » »

Bryan Adams - Brand New Day Tabs

Artists:  A B C D E F G H I J K L M N O P Q R S T U V W X Y Z # 

Brand New Day Tabs

(ver. 1) Click to play this song!
Bryan Adams
 Rating:
4.5/5 (22 votes)

 Brand New Day  lessons Tabs too difficult? Try these video lessons and learn fast
 
                e|--3-3--2-2--3-3--2-2--3-3--2-2--3-3--2-2------------------------------------------|
B|--3-3--3-3--3-3--3-3--3-3--3-3--3-3--3-3--3-3--2-2--3-3--2-2--3-3--2-2--3-3--2-2--|
G|--2-2--2-2--2-2--2-2--2-2--2-2--2-2--2-2--2-2--2-2--2-2--2-2--2-2--2-2--2-2--2-2--|
D|------------------------------------------2-2--2-2--2-2--2-2--2-2--2-2--2-2--2-2--|
A|----------------------------------------------------------------------------------|
E|----------------------------------------------------------------------------------|

e|--2-2-2-2--2-2-2-2--2-2-2-2--2-2-2-2----------------------------------------------|
B|--3-3-3-3--3-3-3-3--3-3-3-3--3-3-3-3----2-2-2-2--2-2-2--3-3--2-2--3-3--2-2--------|
G|--2-2-2-2--2-2-2-2--2-2-2-2--2-2-2-2----2-2-2-2--2-2-2--3-3--2-2--3-3--2-2--------|
D|----------------------------------------2-2-2-2--2-2-2--2-2--2-2--2-2--2-2--------|
A|----------------------------------------------------------------------------------|
E|----------------------------------------------------------------------------------|
    JOHNNY HAD A PLAN GONNA SEE THE WORLD HE HAD TO GO
    KNEW

e|--2-2-2-2--2-2-2-2--2-2-2-2--2-2-2-2----------------------------------------------|
B|--3-3-3-3--3-3-3-3--3-3-3-3--3-3-3-3----2-2-2-2--2-2-2--3-3--2-2--3-3--2-2--------|
G|--2-2-2-2--2-2-2-2--2-2-2-2--2-2-2-2----2-2-2-2--2-2-2--3-3--2-2--3-3--2-2--------|
D|----------------------------------------2-2-2-2--2-2-2--2-2--2-2--2-2--2-2--------|
A|----------------------------------------------------------------------------------|
E|----------------------------------------------------------------------------------|
    GONNA TAKE HIS    AND THEY'D MAKE     ONTARIO                           SHE SAID
    GIRL              THEIR WAY TO

e|--2-2-2-2-2----2-2-2-2-2----2-2-2-2-2---2-2-2-2-2-------|
B|--3-3-3-3-3----2-2-2-2-2----3-3-3-3-3---2-2-2-2-2-------|
G|--4-4-4-4-4----2-2-2-2-2----4-4-4-4-4---2-2-2-2-2-------|
D|--4-4-4-4-4----4-4-4-4-4----4-4-4-4-4---4-4-4-4-4-------|
A|--2-2-2-2-2----4-4-4-4-4----2-2-2-2-2---4-4-4-4-4-------|
E|--2-2-2-2-2----2-2-2-2-2----2-2-2-2-2---2-2-2-2-2-------|
    WHY ARE YOU  ME THAT WAY  YOU GONNA   OR YOU GONNA
    LOOKING AT                GO          STAY

e|--3333--3333----------------3333--3333--------------------3333-3333-----------------|
B|--3333--3333----2222--2222--3333--3333------2222--2222----3333-3333-----2222--2222--|
G|--0000--0000----2222--2222--0000--0000------2222--2222----0000-0000-----2222--2222--|
D|--0000--0000----2222--2222--0000--0000------2222--2222----0000-0000-----2222--2222--|
A|--2222--2222----------------2222--2222--------------------2222-2222-----------------|
E|--3333--3333----------------3333--3333--------------------3333-3333-----------------|
    GET UP GET UP HEAR WHAT   WAKE UP WAKE UP WE'LL FIND A  GET UP GET UP IT'S A BRAND
    GET UP        I SAY       WAKE UP         BETTER WAY    GET UP        NEW

e|--3-3--2-2--3-3--2-2--3-3--2-2--3-3--2-2------------------------------------------|
B|--3-3--3-3--3-3--3-3--3-3--3-3--3-3--3-3--3-3--2-2--3-3--2-2--3-3--2-2--3-3--2-2--|
G|--2-2--2-2--2-2--2-2--2-2--2-2--2-2--2-2--2-2--2-2--2-2--2-2--2-2--2-2--2-2--2-2--|
D|------------------------------------------2-2--2-2--2-2--2-2--2-2--2-2--2-2--2-2--|
A|----------------------------------------------------------------------------------|
E|----------------------------------------------------------------------------------|
    DAY

e|--2-2-2-2--2-2-2-2--2-2-2-2--2-2-2-2----------------------------------------------|
B|--3-3-3-3--3-3-3-3--3-3-3-3--3-3-3-3----2-2-2-2--2-2-2--3-3--2-2--3-3--2-2--------|
G|--2-2-2-2--2-2-2-2--2-2-2-2--2-2-2-2----2-2-2-2--2-2-2--3-3--2-2--3-3--2-2--------|
D|----------------------------------------2-2-2-2--2-2-2--2-2--2-2--2-2--2-2--------|
A|----------------------------------------------------------------------------------|
E|----------------------------------------------------------------------------------|
    SO HE FLAGGED A   ON AN EASTBOUND     ANYWHERE
    RIDE              TRAIN GOING

e|--2-2-2-2--2-2-2-2--2-2-2-2--2-2-2-2----------------------------------------------|
B|--3-3-3-3--3-3-3-3--3-3-3-3--3-3-3-3----2-2-2-2--2-2-2--3-3--2-2--3-3--2-2--------|
G|--2-2-2-2--2-2-2-2--2-2-2-2--2-2-2-2----2-2-2-2--2-2-2--3-3--2-2--3-3--2-2--------|
D|----------------------------------------2-2-2-2--2-2-2--2-2--2-2--2-2--2-2--------|
A|----------------------------------------------------------------------------------|
E|----------------------------------------------------------------------------------|
    DRIVING THROUGH   THROUGH THE WIND    ALL THE WAY THERE
    THE NIGHT         AND RAIN TOOK HIM

e|--2-2-2-2-2----2-2-2-2-2-----2-2-2-2-2------2-2-2-2-2-------|
B|--3-3-3-3-3----2-2-2-2-2-----3-3-3-3-3------2-2-2-2-2-------|
G|--4-4-4-4-4----2-2-2-2-2-----4-4-4-4-4------2-2-2-2-2-------|
D|--4-4-4-4-4----4-4-4-4-4-----4-4-4-4-4------4-4-4-4-4-------|
A|--2-2-2-2-2----4-4-4-4-4-----2-2-2-2-2------4-4-4-4-4-------|
E|--2-2-2-2-2----2-2-2-2-2-----2-2-2-2-2------2-2-2-2-2-------|
   COUNTING THE  MILES SLIPPED IN THE SOUND   STILL
   HOURS AS THE  AWAY          OF THE WHEELS  HEAR HIM SAY
                               HE COULD

e|--3333--3333----------------3333--3333--------------------3333-3333-----------------|
B|--3333--3333----2222--2222--3333--3333------2222--2222----3333-3333-----2222--2222--|
G|--0000--0000----2222--2222--0000--0000------2222--2222----0000-0000-----2222--2222--|
D|--0000--0000----2222--2222--0000--0000------2222--2222----0000-0000-----2222--2222--|
A|--2222--2222----------------2222--2222--------------------2222-2222-----------------|
E|--3333--3333----------------3333--3333--------------------3333-3333-----------------|
    GET UP GET UP HEAR WHAT   WAKE UP WAKE UP WE'LL FIND A  GET UP GET UP IT'S A BRAND
    GET UP        I SAY       WAKE UP         BETTER WAY    GET UP        NEW

e|--3-3--2-2--3-3--2-2--3-3--2-2--3-3--2-2------------------------------------------|
B|--3-3--3-3--3-3--3-3--3-3--3-3--3-3--3-3--3-3--2-2--3-3--2-2--3-3--2-2--3-3--2-2--|
G|--2-2--2-2--2-2--2-2--2-2--2-2--2-2--2-2--2-2--2-2--2-2--2-2--2-2--2-2--2-2--2-2--|
D|------------------------------------------2-2--2-2--2-2--2-2--2-2--2-2--2-2--2-2--|
A|----------------------------------------------------------------------------------|
E|----------------------------------------------------------------------------------|
    DAY                                                         IT'S A BRAND NEW

e|--3-3--2-2--3-3--2-2--3-3--2-2--3-3--2-2-------------------------------------|
B|--3-3--3-3--3-3--3-3--3-3--3-3--3-3--3-3--3-3--2-2--3-3--2-2--3-3--2-2-------|
G|--2-2--2-2--2-2--2-2--2-2--2-2--2-2--2-2--2-2--2-2--2-2--2-2--2-2--2-2-------|
D|------------------------------------------2-2--2-2--2-2--2-2--2-2--2-2-------|
A|-----------------------------------------------------------------------------|
E|-----------------------------------------------------------------------------|
    DAY

e|---------------------3---------------------------3---------------------------3--------|
B|---------------------3--X--2---------------------3--X--2---------------------3--X--2--|
G|---------------------0--X--2---------------------0--X--2---------------------0--X--2--|
D|--4-4-4--2-2-2--0-0--0--X--2--4-4-4--2-2-2--0-0--0--X--2--4-4-4--2-2-2--0-0--0--X--2--|
A|--0-0-0--0-0-0--0-0--2--X-----0-0-0--0-0-0--0-0--2--X-----0-0-0--0-0-0--0-0--2--X-----|
E|---------------------3---------------------------3---------------------------3--------|
    WHAT YOU THINKIN ABOUT     MAN YOU BETTER GET OUT     I'M GONNA BE SOMEONE HAVE MY
                                                          DAY IN THE SUN

e|----------------------------------------------------------------------------|
B|--2-2-2-2--2-2-2-2--2-2-2-2--2-2-2-2--2-2-2-2--2-2-2-2--2-2-2-2--2-2-2-2----|
G|--2-2-2-2--2-2-2-2--2-2-2-2--2-2-2-2--2-2-2-2--2-2-2-2--2-2-2-2--2-2-2-2----|
D|--2-2-2-2--2-2-2-2--2-2-2-2--2-2-2-2--2-2-2-2--2-2-2-2--2-2-2-2--2-2-2-2----|
A|----------------------------------------------------------------------------|
E|----------------------------------------------------------------------------|
   WELL YOU WON'T KNOW UNLESS YOU TRY SO BYE BYE BABY BYE BYE BABY BYE BYE

e|--3-3--2-2--3-3--2-2--3-3--2-2--3-3--2-2-------------------------------------|
B|--3-3--3-3--3-3--3-3--3-3--3-3--3-3--3-3--3-3--2-2--3-3--2-2--3-3--2-2-------|
G|--2-2--2-2--2-2--2-2--2-2--2-2--2-2--2-2--2-2--2-2--2-2--2-2--2-2--2-2-------|
D|------------------------------------------2-2--2-2--2-2--2-2--2-2--2-2-------|
A|-----------------------------------------------------------------------------|
E|-----------------------------------------------------------------------------|

e|--2-2-2-2--2-2-2-2--2-2-2-2--2-2-2-2----------------------------------------------|
B|--3-3-3-3--3-3-3-3--3-3-3-3--3-3-3-3----2-2-2-2--2-2-2--3-3--2-2--3-3--2-2--------|
G|--2-2-2-2--2-2-2-2--2-2-2-2--2-2-2-2----2-2-2-2--2-2-2--3-3--2-2--3-3--2-2--------|
D|----------------------------------------2-2-2-2--2-2-2--2-2--2-2--2-2--2-2--------|
A|----------------------------------------------------------------------------------|
E|----------------------------------------------------------------------------------|
   SOMETIMES HE'D LAY THINKIN ABOUT THE   NEVER TOLD HER
   AWAKE              THINGS THAT HE

e|--2-2-2-2--2-2-2-2--2-2-2-2--2-2-2-2----------------------------------------------|
B|--3-3-3-3--3-3-3-3--3-3-3-3--3-3-3-3----2-2-2-2--2-2-2--3-3--2-2--3-3--2-2--------|
G|--2-2-2-2--2-2-2-2--2-2-2-2--2-2-2-2----2-2-2-2--2-2-2--3-3--2-2--3-3--2-2--------|
D|----------------------------------------2-2-2-2--2-2-2--2-2--2-2--2-2--2-2--------|
A|----------------------------------------------------------------------------------|
E|----------------------------------------------------------------------------------|
    SO ON A STARRY    FROM A NOISY        HE TELEPHONED HER 
    NIGHT             BAR

e|--2-2-2-2-2------2-2-2-2-2-------2-2-2-2-2------2-2-2-2-2-------|
B|--3-3-3-3-3------2-2-2-2-2-------3-3-3-3-3------2-2-2-2-2-------|
G|--4-4-4-4-4------2-2-2-2-2-------4-4-4-4-4------2-2-2-2-2-------|
D|--4-4-4-4-4------4-4-4-4-4-------4-4-4-4-4------4-4-4-4-4-------|
A|--2-2-2-2-2------4-4-4-4-4-------2-2-2-2-2------4-4-4-4-4-------|
E|--2-2-2-2-2------2-2-2-2-2-------2-2-2-2-2------2-2-2-2-2-------|
    YOU COULD      I'LL MEET       AND SAID       NEVER CHANGE
    COME DOWN      YOU'RE TRAIN    SOME PEOPLE
                   SHE JUST LAUGHED

e|--3333--3333----------------3333--3333--------------------3333-3333-----------------|
B|--3333--3333----2222--2222--3333--3333------2222--2222----3333-3333-----2222--2222--|
G|--0000--0000----2222--2222--0000--0000------2222--2222----0000-0000-----2222--2222--|
D|--0000--0000----2222--2222--0000--0000------2222--2222----0000-0000-----2222--2222--|
A|--2222--2222----------------2222--2222--------------------2222-2222-----------------|
E|--3333--3333----------------3333--3333--------------------3333-3333-----------------|
    GET UP GET UP HEAR WHAT   WAKE UP WAKE UP WE'LL FIND A  GET UP GET UP IT'S A BRAND
    GET UP        I SAY       WAKE UP         BETTER WAY    GET UP        NEW

e|--3-3--2-2--3-3--2-2--3-3--2-2--3-3--2-2------------------------------------------|
B|--3-3--3-3--3-3--3-3--3-3--3-3--3-3--3-3--3-3--2-2--3-3--2-2--3-3--2-2--3-3--2-2--|
G|--2-2--2-2--2-2--2-2--2-2--2-2--2-2--2-2--2-2--2-2--2-2--2-2--2-2--2-2--2-2--2-2--|
D|------------------------------------------2-2--2-2--2-2--2-2--2-2--2-2--2-2--2-2--|
A|----------------------------------------------------------------------------------|
E|----------------------------------------------------------------------------------|
    DAY                                                           IT'S A BRAND NEW

e|--3-3--2-2--3-3--2-2--3-3--2-2--3-3--2-2------------------------------------------|
B|--3-3--3-3--3-3--3-3--3-3--3-3--3-3--3-3--3-3--2-2--3-3--2-2--3-3-3-3-3-3-3-3-----|
G|--2-2--2-2--2-2--2-2--2-2--2-2--2-2--2-2--2-2--2-2--2-2--2-2--2-2-2-2-2-2-2-2-----|
D|------------------------------------------2-2--2-2--2-2--2-2--2-2-2-2-2-2-2-2-----|
A|----------------------------------------------------------------------------------|
E|----------------------------------------------------------------------------------|
  DAY                                                          IT'S A BRAND NEW 

e|---2-------2-2------2-2------2------|
B|---3-------3-3------3-3------3------|
G|---2-------2-2------2-2------2------|
D|------------------------------------|
A|------------------------------------|
E|------------------------------------|
     DAY 
            
Submit corrections


        Brand New Day  lessons Hard to play? Try these video lessons and learn fast Brand New Day  lessons
        
↑ Back to top | Tablatures and chords for acoustic guitar and electric guitar, ukulele, drums are parodies/interpretations of the original songs. You may use it for private study, scholarship, research or language learning purposes only