» » »

Bring Me The Horizon - Medicine Tabs

Artists:  A B C D E F G H I J K L M N O P Q R S T U V W X Y Z # 

Medicine Tabs

(ver. 2) Click to play this song!
Bring Me The Horizon
 Rating:
4.3/5 (21 vote)

 Medicine lessons Tabs too difficult? Try these video lessons and learn fast
 
                [verse]

Some people are a lot like clouds you know,
[guitar 1]
E|-------------------------------|
B|-------------------------------|
G|-----------------7-7-7-7-7-7-7-|
D|-8-8-8-8-8-8-8-8-7-7-7-7-7-7-7-|
A|-8-8-8-8-8-8-8-8-5-5-5-5-5-5-5-|
E|-6-6-6-6-6-6-6-6---------------|

[guitar 1]
E|----------------------------------------------------|-------|
B|----------------------------------------------------|-------|
G|-12-14-14-14--10-12-12-12--10-12-12-12--10-12-12-12-|-------|
D|----------------------------------------------------|12--10-| X2
A|----------------------------------------------------|-------|
E|----------------------------------------------------|-------|

'cause life’s so much brighter when they go.
[guitar 1]
E|---------------------------------|
B|---------------------------------|
G|-5-5-5-5-5-5-5-5-----------------|
D|-5-5-5-5-5-5-5-5-5-5-5-5-5-5-5-5-|
A|-3-3-3-3-3-3-3-3-5-5-5-5-5-5-5-5-|
E|-----------------3-3-3-3-3-3-3-3-|

[guitar 2]
E|----------------------------------------------------|-------|
B|----------------------------------------------------|-------|
G|-12-14-14-14--10-12-12-12--10-12-12-12--10-12-12-12-|-------|
D|----------------------------------------------------|12--10-| X2
A|----------------------------------------------------|-------|
E|----------------------------------------------------|-------|

You rained on my heart for far too long
E|-------------------------------|
B|-------------------------------|
G|-----------------7-7-7-7-7-7-7-|
D|-8-8-8-8-8-8-8-8-7-7-7-7-7-7-7-|
A|-8-8-8-8-8-8-8-8-5-5-5-5-5-5-5-|
E|-6-6-6-6-6-6-6-6---------------|

Couldn’t see the thunder for the storm.
E|---------------------------------|
B|---------------------------------|
G|-5-5-5-5-5-5-5-5-----------------|
D|-5-5-5-5-5-5-5-5-5-5-5-5-5-5-5-5-|
A|-3-3-3-3-3-3-3-3-5-5-5-5-5-5-5-5-|
E|-----------------3-3-3-3-3-3-3-3-|

E|-------------------|
B|----13-------------|
G|-14----12-14-------|
D|-------------12-10-|
A|-------------------|
E|-------------------|

Because I cut my teeth and bit my tongue til’ my mouth was dripping blood 
[guitar 1]
E|-------------------------------|
B|-------------------------------|
G|-----------------7-7-7-7-7-7-7-|
D|-8-8-8-8-8-8-8-8-7-7-7-7-7-7-7-|
A|-8-8-8-8-8-8-8-8-5-5-5-5-5-5-5-|
E|-6-6-6-6-6-6-6-6---------------|

[guitar 2]
E|----------------------------------------------------|-------|
B|----------------------------------------------------|-------|
G|-12-14-14-14--10-12-12-12--10-12-12-12--10-12-12-12-|-------|
D|----------------------------------------------------|12--10-| 
A|----------------------------------------------------|-------|
E|----------------------------------------------------|-------|

but I never dished the dirt just held my breath while you dragged me through the mud 
[guitar 1]
E|---------------------------------|
B|---------------------------------|
G|-5-5-5-5-5-5-5-5-----------------|
D|-5-5-5-5-5-5-5-5-5-5-5-5-5-5-5-5-|
A|-3-3-3-3-3-3-3-3-5-5-5-5-5-5-5-5-|
E|-----------------3-3-3-3-3-3-3-3-|

[guitar 2]
E|----------------------------------------------------|-------|
B|----------------------------------------------------|-------|
G|-12-14-14-14--10-12-12-12--10-12-12-12--10-12-12-12-|-------|
D|----------------------------------------------------|12--10-| 
A|----------------------------------------------------|-------|
E|----------------------------------------------------|-------|

I don’t know why I tried to save you 'cause I can’t save you from yourself 
[guitar 1]
E|-------------------------------|
B|-------------------------------|
G|-----------------7-7-7-7-7-7-7-|
D|-8-8-8-8-8-8-8-8-7-7-7-7-7-7-7-|
A|-8-8-8-8-8-8-8-8-5-5-5-5-5-5-5-|
E|-6-6-6-6-6-6-6-6---------------|

[guitar 2]
E|----------------------------------------------------|-------|
B|----------------------------------------------------|-------|
G|-12-14-14-14--10-12-12-12--10-12-12-12--10-12-12-12-|-------|
D|----------------------------------------------------|12--10-| 
A|----------------------------------------------------|-------|
E|----------------------------------------------------|-------|

when all you give a sh*t about is everybody else
[guitar 1] 
E|---------------------------------|
B|---------------------------------|
G|-5-5-5-5-5-5-5-5-----------------|
D|-5-5-5-5-5-5-5-5-5-5-5-5-5-5-5-5-|
A|-3-3-3-3-3-3-3-3-5-5-5-5-5-5-5-5-|
E|-----------------3-3-3-3-3-3-3-3-|

[guitar 2]
E|----------------------------------------------------|-------|
B|----------------------------------------------------|-------|
G|-12-14-14-14--10-12-12-12--10-12-12-12--10-12-12-12-|-------|
D|----------------------------------------------------|12--10-| 
A|----------------------------------------------------|-------|
E|----------------------------------------------------|-------|

[pre-chorus]

And you just can’t quit  Why don’t you deal with it? I think it’s time to stop.
[guitar 1]
E|----------------------------------------------------|
B|----------------------------------------------------|
G|----------------------------------------------------|
D|-8----------------------7-------------------------5-|
A|-8----------------------5-------------------------3-|
E|-6----------------------5-------------------------3-|

[guitar 2]
E|-------------------------------------------------------------|
B|---13/15/13---------------13/15/13------------------13/15/13-|
G|-------------------------------------------------------------|
D|-------------------------------------------------------------|
A|-------------------------------------------------------------|
E|-------------------------------------------------------------|

[guitar 3] (guitar with effect)
E|----------------------------------------------------|--------------------------|
B|-----------------------------------------------8-10-|--------------------------|
G|-9-10-9-------9-10-9-------9-10-9-------9-10-9------|9-10-9-------9-10-9-------|
D|--------10-12--------10-12--------10-12-------------|-------10-12--------10-12-|
A|----------------------------------------------------|--------------------------|
E|----------------------------------------------------|--------------------------|

You need a taste of your own medicine 
[guitar 1]
E|---------|--------|--------|--------|
B|---------|--------|--------|--------|
G|---------|--------|7-7-7-7-|5-5-5-5-|
D|-8-8-8-8-|7-7-7-7-|7-7-7-7-|5-5-5-5-|
A|-8-8-8-8-|7-7-7-7-|5-5-5-5-|3-3-3-3-|
E|-6-6-6-6-|5-5-5-5-|5-5-5-5-|3-3-3-3-|

[guitar 2]
E|---------------------------------------------------------|
B|---------------------------------------------------------|
G|---------------------------------10-12-12-12-10-12-12-12-|
D|---------------------------------------------------------|
A|---------------------------------------------------------|
E|---------------------------------------------------------|

[guitar 3] (guitar with effect)
E|-----------------------------------------------|-----|
B|-----------------------------------------------|8-10-|
G|-9-10-9-------9-10-9-------9-10-9-------9-10-9-|-----|
D|--------10-12--------10-12--------10-12--------|-----|
A|-----------------------------------------------|-----|
E|-----------------------------------------------|-----|

Cos I’m sick to death of swallowing
[guitar 1]
E|---------|--------|--------|--------|
B|---------|--------|--------|--------|
G|---------|--------|7-7-7-7-|5-5-5-5-|
D|-8-8-8-8-|7-7-7-7-|7-7-7-7-|5-5-5-5-|
A|-8-8-8-8-|7-7-7-7-|5-5-5-5-|3-3-3-3-|
E|-6-6-6-6-|5-5-5-5-|5-5-5-5-|3-3-3-3-|

[guitar 2] (guitar with effect)
E|-----------------------------------------------|-----|
B|-----------------------------------------------|8-10-|
G|-9-10-9-------9-10-9-------9-10-9-------9-10-9-|-----|
D|--------10-12--------10-12--------10-12--------|-----|
A|-----------------------------------------------|-----|
E|-----------------------------------------------|-----|

[guitar 3]
E|---------------------------------------------------------|
B|---------------------------------------------------------|
G|---------------------------------10-12-12-12-10-12-12-12-|
D|---------------------------------------------------------|
A|---------------------------------------------------------|
E|---------------------------------------------------------|

watch me take the wheel like you Not feel like you 
E|---------|--------|--------|--------|
B|---------|--------|--------|--------|
G|---------|--------|7-7-7-7-|5-5-5-5-|
D|-8-8-8-8-|7-7-7-7-|7-7-7-7-|5-5-5-5-|
A|-8-8-8-8-|7-7-7-7-|5-5-5-5-|3-3-3-3-|
E|-6-6-6-6-|5-5-5-5-|5-5-5-5-|3-3-3-3-|

so I’m sorry for this, it might sting a bit.
[guitar 1]
E|---------|--------|--------|--------|
B|---------|--------|--------|--------|
G|---------|--------|7-7-7-7-|5-5-5-5-|
D|-8-8-8-8-|7-7-7-7-|7-7-7-7-|5-5-5-5-|
A|-8-8-8-8-|7-7-7-7-|5-5-5-5-|3-3-3-3-|
E|-6-6-6-6-|5-5-5-5-|5-5-5-5-|3-3-3-3-|

[guitar 2]
E|----------------------------------------------------|-------|
B|----------------------------------------------------|-------|
G|-12-14-14-14--10-12-12-12--10-12-12-12--10-12-12-12-|-------|
D|----------------------------------------------------|12--10-| 
A|----------------------------------------------------|-------|
E|----------------------------------------------------|-------|

[guitar 3] (guitar with effect)
E|-----------------------------------------------|-----|
B|-----------------------------------------------|8-10-|
G|-9-10-9-------9-10-9-------9-10-9-------9-10-9-|-----|
D|--------10-12--------10-12--------10-12--------|-----|
A|-----------------------------------------------|-----|
E|-----------------------------------------------|-----|

[intro]

E|----------------------------------------------------|-------|
B|----------------------------------------------------|-------|
G|-12-14-14-14--10-12-12-12--10-12-12-12--10-12-12-12-|-------|
D|----------------------------------------------------|12--10-| 
A|----------------------------------------------------|-------|
E|----------------------------------------------------|-------|

[verse]

Some people are a lot like clouds you know,
[guiatr 1]
E|-------------------------------|
B|-------------------------------|
G|-----------------7-7-7-7-7-7-7-|
D|-8-8-8-8-8-8-8-8-7-7-7-7-7-7-7-|
A|-8-8-8-8-8-8-8-8-5-5-5-5-5-5-5-|
E|-6-6-6-6-6-6-6-6---------------|

[guitar 2]
E|----------------------------------------------------|-------|
B|----------------------------------------------------|-------|
G|-12-14-14-14--10-12-12-12--10-12-12-12--10-12-12-12-|-------|
D|----------------------------------------------------|12--10-| 
A|----------------------------------------------------|-------|
E|----------------------------------------------------|-------|

'cause life’s so much brighter when they go.
[guitar 1]
E|---------------------------------|
B|---------------------------------|
G|-5-5-5-5-5-5-5-5-----------------|
D|-5-5-5-5-5-5-5-5-5-5-5-5-5-5-5-5-|
A|-3-3-3-3-3-3-3-3-5-5-5-5-5-5-5-5-|
E|-----------------3-3-3-3-3-3-3-3-|

[guitar 2]
E|----------------------------------------------------|-------|
B|----------------------------------------------------|-------|
G|-12-14-14-14--10-12-12-12--10-12-12-12--10-12-12-12-|-------|
D|----------------------------------------------------|12--10-| 
A|----------------------------------------------------|-------|
E|----------------------------------------------------|-------|

and I spent too long in a place I don’t belong
[guitar 1]
E|-------------------------------|
B|-------------------------------|
G|-----------------7-7-7-7-7-7-7-|
D|-8-8-8-8-8-8-8-8-7-7-7-7-7-7-7-|
A|-8-8-8-8-8-8-8-8-5-5-5-5-5-5-5-|
E|-6-6-6-6-6-6-6-6---------------|

[guitar 2]
E|----------------------------------------------------|-------|
B|----------------------------------------------------|-------|
G|-12-14-14-14--10-12-12-12--10-12-12-12--10-12-12-12-|-------|
D|----------------------------------------------------|12--10-| 
A|----------------------------------------------------|-------|
E|----------------------------------------------------|-------|

couldn’t see the thunder for the storm 
[guitar 1]
E|---------------------------------|
B|---------------------------------|
G|-5-5-5-5-5-5-5-5-----------------|
D|-5-5-5-5-5-5-5-5-5-5-5-5-5-5-5-5-|
A|-3-3-3-3-3-3-3-3-5-5-5-5-5-5-5-5-|
E|-----------------3-3-3-3-3-3-3-3-|

[guitar 2]
E|----------------------------------------------------|-------|
B|----------------------------------------------------|-------|
G|-12-14-14-14--10-12-12-12--10-12-12-12--10-12-12-12-|-------|
D|----------------------------------------------------|12--10-| 
A|----------------------------------------------------|-------|
E|----------------------------------------------------|-------|
[guitar 3]
E|-------------------|
B|----13-------------|
G|-14----12-14-------|
D|-------------12-10-|
A|-------------------|
E|-------------------|

[pre-chorus]

  But you won’t admit Why don’t you get a grip 'Cause you can’t keep going on and on and on like this
[guitar 1]
E|--------------------------------------------------------------------------|
B|--------------------------------------------------------------------------|
G|--------------------------------------------------------------------------|
D|-8----------------------7-------------------------5---------------------5-|
A|-8----------------------5-------------------------3---------------------5-|
E|-6----------------------5-------------------------3---------------------3-|

[guitar 2]
E|----------------|-------------------------|------------------------|----------------|
B|-13/15/13-------|--------13/15/13---------|---------13/15/13-------|-------13/15/13-|
G|----------------|-------------------------|------------------------|----------------|
D|----------------|-------------------------|------------------------|----------------|
A|----------------|-------------------------|------------------------|----------------|
E|----------------|-------------------------|------------------------|----------------|

[guitar 3] (guitar with effect)
E|-----------------------------------------------|---------------------------------------------------------|
B|-----------------------------------------------|8-10------------------------------------------------8-10-|
G|-9-10-9-------9-10-9-------9-10-9-------9-10-9-|-----9-10-9-------9-10-9-------9-10-9-------9-10--9------|
D|--------10-12--------10-12--------10-12--------|------------10-12--------10-12--------10-12--------------|
A|-----------------------------------------------|---------------------------------------------------------|
E|-----------------------------------------------|---------------------------------------------------------|

  No you just can’t quit Why don’t you deal with it? I think it’s time to stop
[guitar 1]
E|-------------------------------------------------------------------------|
B|-------------------------------------------------------------------------|
G|-------------------------------------------------------------------------|
D|-8----------------------7-------------------------5----------------------|
A|-8----------------------5-------------------------3----------------------|
E|-6----------------------5-------------------------3----------------------|

[guiatar 2]
E|-------------------------------------------------------------|
B|---13/15/13---------------13/15/13------------------13/15/13-|
G|-------------------------------------------------------------|
D|-------------------------------------------------------------|
A|-------------------------------------------------------------|
E|-------------------------------------------------------------|

[guitar 3] (guitar with effect)
E|-----------------------------------------------|-------------------------------|
B|-----------------------------------------------|8-10---------------------------|
G|-9-10-9-------9-10-9-------9-10-9-------9-10-9-|-----9-10-9-------9-10-9-------|
D|--------10-12--------10-12--------10-12--------|------------10-12--------10-12-|
A|-----------------------------------------------|-------------------------------|
E|-----------------------------------------------|-------------------------------|

You need a taste of your own medicine 
[guitar 1]
E|---------|--------|--------|--------|
B|---------|--------|--------|--------|
G|---------|--------|7-7-7-7-|5-5-5-5-|
D|-8-8-8-8-|7-7-7-7-|7-7-7-7-|5-5-5-5-|
A|-8-8-8-8-|7-7-7-7-|5-5-5-5-|3-3-3-3-|
E|-6-6-6-6-|5-5-5-5-|5-5-5-5-|3-3-3-3-|

[guitar 2]
E|---------------------------------------------------------|
B|---------------------------------------------------------|
G|---------------------------------10-12-12-12-10-12-12-12-|
D|---------------------------------------------------------|
A|---------------------------------------------------------|
E|---------------------------------------------------------|

[guitar 3] (guitar with effect)
E|-----------------------------------------------|-----|
B|-----------------------------------------------|8-10-|
G|-9-10-9-------9-10-9-------9-10-9-------9-10-9-|-----|
D|--------10-12--------10-12--------10-12--------|-----|
A|-----------------------------------------------|-----|
E|-----------------------------------------------|-----|

Cos I’m sick to death of swallowing
[guitar 1]
E|---------|--------|--------|--------|
B|---------|--------|--------|--------|
G|---------|--------|7-7-7-7-|5-5-5-5-|
D|-8-8-8-8-|7-7-7-7-|7-7-7-7-|5-5-5-5-|
A|-8-8-8-8-|7-7-7-7-|5-5-5-5-|3-3-3-3-|
E|-6-6-6-6-|5-5-5-5-|5-5-5-5-|3-3-3-3-|

[guitar 2]
E|---------------------------------------------------------|
B|---------------------------------------------------------|
G|---------------------------------10-12-12-12-10-12-12-12-|
D|---------------------------------------------------------|
A|---------------------------------------------------------|
E|---------------------------------------------------------|

[guitar 3] (guitar with effect)
E|-----------------------------------------------|-----|
B|-----------------------------------------------|8-10-|
G|-9-10-9-------9-10-9-------9-10-9-------9-10-9-|-----|
D|--------10-12--------10-12--------10-12--------|-----|
A|-----------------------------------------------|-----|
E|-----------------------------------------------|-----|

watch me take the wheel like you Not feel like you 
E|---------|--------|--------|--------|
B|---------|--------|--------|--------|
G|---------|--------|7-7-7-7-|5-5-5-5-|
D|-8-8-8-8-|7-7-7-7-|7-7-7-7-|5-5-5-5-|
A|-8-8-8-8-|7-7-7-7-|5-5-5-5-|3-3-3-3-|
E|-6-6-6-6-|5-5-5-5-|5-5-5-5-|3-3-3-3-|

so I’m sorry for this, it might sting a bit.
[guitar 1]
E|---------|--------|--------|--------|
B|---------|--------|--------|--------|
G|---------|--------|7-7-7-7-|5-5-5-5-|
D|-8-8-8-8-|7-7-7-7-|7-7-7-7-|5-5-5-5-|
A|-8-8-8-8-|7-7-7-7-|5-5-5-5-|3-3-3-3-|
E|-6-6-6-6-|5-5-5-5-|5-5-5-5-|3-3-3-3-|

[guitar 2] (guitar with effect)
E|-----------------------------------------------|-----|
B|-----------------------------------------------|8-10-|
G|-9-10-9-------9-10-9-------9-10-9-------9-10-9-|-----|
D|--------10-12--------10-12--------10-12--------|-----|
A|-----------------------------------------------|-----|
E|-----------------------------------------------|-----|

'Cause I cut my teeth and bit my tongue Till my mouth was dripping blood
[guitar 1]
E|---------|--------|--------|--------|
B|---------|--------|--------|--------|
G|---------|--------|7-7-7-7-|5-5-5-5-|
D|-8-8-8-8-|7-7-7-7-|7-7-7-7-|5-5-5-5-|
A|-8-8-8-8-|7-7-7-7-|5-5-5-5-|3-3-3-3-|
E|-6-6-6-6-|5-5-5-5-|5-5-5-5-|3-3-3-3-|

[guitar 2]
E|----------------------------------------------------|-------|
B|----------------------------------------------------|-------|
G|-12-14-14-14--10-12-12-12--10-12-12-12--10-12-12-12-|-------|
D|----------------------------------------------------|12--10-| 
A|----------------------------------------------------|-------|
E|----------------------------------------------------|-------|

[guitar 3] (guitar with effect)
E|-----------------------------------------------|-----|
B|-----------------------------------------------|8-10-|
G|-9-10-9-------9-10-9-------9-10-9-------9-10-9-|-----|
D|--------10-12--------10-12--------10-12--------|-----|
A|-----------------------------------------------|-----|
E|-----------------------------------------------|-----|


But I never dished the dirt, just held my breath While you dragged me through the mud
[guitar 1]
E|---------|--------|--------|--------|
B|---------|--------|--------|--------|
G|---------|--------|7-7-7-7-|5-5-5-5-|
D|-8-8-8-8-|7-7-7-7-|7-7-7-7-|5-5-5-5-|
A|-8-8-8-8-|7-7-7-7-|5-5-5-5-|3-3-3-3-|
E|-6-6-6-6-|5-5-5-5-|5-5-5-5-|3-3-3-3-|

[guitar 2]
E|----------------------------------------------------|-------|
B|----------------------------------------------------|-------|
G|-12-14-14-14--10-12-12-12--10-12-12-12--10-12-12-12-|-------|
D|----------------------------------------------------|12--10-| 
A|----------------------------------------------------|-------|
E|----------------------------------------------------|-------|

[guitar 3] (guitar with effect)
E|-----------------------------------------------|-----|
B|-----------------------------------------------|8-10-|
G|-9-10-9-------9-10-9-------9-10-9-------9-10-9-|-----|
D|--------10-12--------10-12--------10-12--------|-----|
A|-----------------------------------------------|-----|
E|-----------------------------------------------|-----|

Yeah, I cut my teeth and bit my tongue Till my mouth was dripping blood
[guitar 1]
E|---------|--------|--------|--------|
B|---------|--------|--------|--------|
G|---------|--------|7-7-7-7-|5-5-5-5-|
D|-8-8-8-8-|7-7-7-7-|7-7-7-7-|5-5-5-5-|
A|-8-8-8-8-|7-7-7-7-|5-5-5-5-|3-3-3-3-|
E|-6-6-6-6-|5-5-5-5-|5-5-5-5-|3-3-3-3-|

[guitar 2]
E|----------------------------------------------------|-------|
B|----------------------------------------------------|-------|
G|-12-14-14-14--10-12-12-12--10-12-12-12--10-12-12-12-|-------|
D|----------------------------------------------------|12--10-| 
A|----------------------------------------------------|-------|
E|----------------------------------------------------|-------|

[guitar 3] (guitar with effect)
E|-----------------------------------------------|-----|
B|-----------------------------------------------|8-10-|
G|-9-10-9-------9-10-9-------9-10-9-------9-10-9-|-----|
D|--------10-12--------10-12--------10-12--------|-----|
A|-----------------------------------------------|-----|
E|-----------------------------------------------|-----|

But I never dished the dirt, just held my breath While you dragged me through the mud
[guitar 1]
E|---------|--------|--------|--------|
B|---------|--------|--------|--------|
G|---------|--------|7-7-7-7-|5-5-5-5-|
D|-8-8-8-8-|7-7-7-7-|7-7-7-7-|5-5-5-5-|
A|-8-8-8-8-|7-7-7-7-|5-5-5-5-|3-3-3-3-|
E|-6-6-6-6-|5-5-5-5-|5-5-5-5-|3-3-3-3-|

[guitar 2]
E|----------------------------------------------------|-------|
B|----------------------------------------------------|-------|
G|-12-14-14-14--10-12-12-12--10-12-12-12--10-12-12-12-|-------|
D|----------------------------------------------------|12--10-| 
A|----------------------------------------------------|-------|
E|----------------------------------------------------|-------|

[guitar 3] (guitar with effect)
E|-----------------------------------------------|-----|
B|-----------------------------------------------|8-10-|
G|-9-10-9-------9-10-9-------9-10-9-------9-10-9-|-----|
D|--------10-12--------10-12--------10-12--------|-----|
A|-----------------------------------------------|-----|
E|-----------------------------------------------|-----|

[bridge]

[guitar 1] (guitar 1 and 2 are played at the same time)
E|---------------------------------|
B|---------------------------------|
G|---------------------------------|
D|---------------------------------|
A|----------5----------3---------6-|
E|-6-------------------------------|

[guitar 2]
E|---------------------------------|
B|----------6----------5-----------|
G|-7-------------------------------|
D|---------------------------------|
A|---------------------------------|
E|---------------------------------|

[guitar 3]
E|-------------------------------|----------------------------------------------------|
B|-------------------------------|----------------------------13-13-13-13-------------|
G|-12-14-10-12-14-10-12-14-10-12-|-12-14-10-12-14-10-12-14-10-------------12h14-12h14-|
D|-------------------------------|----------------------------------------------------|
A|-------------------------------|----------------------------------------------------|
E|-------------------------------|----------------------------------------------------|

[guitar 3]
E|----|-------------------------------------------|
B|----|-------------------------------------------|
G|----|14-10-12-14-10-12-14-10-12--12-14-10-12-14-|
D|-12-|-------------------------------------------|
A|----|-------------------------------------------|
E|----|-------------------------------------------|

[guitar 4] (guitar with effect)
E|-----------------------------------------------|-----|
B|-----------------------------------------------|8-10-|
G|-9-10-9-------9-10-9-------9-10-9-------9-10-9-|-----|
D|--------10-12--------10-12--------10-12--------|-----| X4
A|-----------------------------------------------|-----|
E|-----------------------------------------------|-----|

chorus 

You need a taste of your own medicine 
[guitar 1]
E|---------|--------|--------|--------|
B|---------|--------|--------|--------|
G|---------|--------|7-7-7-7-|5-5-5-5-|
D|-8-8-8-8-|7-7-7-7-|7-7-7-7-|5-5-5-5-|
A|-8-8-8-8-|7-7-7-7-|5-5-5-5-|3-3-3-3-|
E|-6-6-6-6-|5-5-5-5-|5-5-5-5-|3-3-3-3-|

[guitar 2]
E|---------------------------------------------------------|
B|---------------------------------------------------------|
G|---------------------------------10-12-12-12-10-12-12-12-|
D|---------------------------------------------------------|
A|---------------------------------------------------------|
E|---------------------------------------------------------|

[guitar 3] (guitar with effect)
E|-----------------------------------------------|-----|
B|-----------------------------------------------|8-10-|
G|-9-10-9-------9-10-9-------9-10-9-------9-10-9-|-----|
D|--------10-12--------10-12--------10-12--------|-----|
A|-----------------------------------------------|-----|
E|-----------------------------------------------|-----|

Cos I’m sick to death of swallowing
[guitar 1]
E|---------|--------|--------|--------|
B|---------|--------|--------|--------|
G|---------|--------|7-7-7-7-|5-5-5-5-|
D|-8-8-8-8-|7-7-7-7-|7-7-7-7-|5-5-5-5-|
A|-8-8-8-8-|7-7-7-7-|5-5-5-5-|3-3-3-3-|
E|-6-6-6-6-|5-5-5-5-|5-5-5-5-|3-3-3-3-|

[guitar 2]
E|---------------------------------------------------------|
B|---------------------------------------------------------|
G|---------------------------------10-12-12-12-10-12-12-12-|
D|---------------------------------------------------------|
A|---------------------------------------------------------|
E|---------------------------------------------------------|

[guitar 3] (guitar with effect)
E|-----------------------------------------------|-----|
B|-----------------------------------------------|8-10-|
G|-9-10-9-------9-10-9-------9-10-9-------9-10-9-|-----|
D|--------10-12--------10-12--------10-12--------|-----|
A|-----------------------------------------------|-----|
E|-----------------------------------------------|-----|

watch me take the wheel like you Not feel like you 
[guitar 1]
E|---------|--------|--------|--------|
B|---------|--------|--------|--------|
G|---------|--------|7-7-7-7-|5-5-5-5-|
D|-8-8-8-8-|7-7-7-7-|7-7-7-7-|5-5-5-5-|
A|-8-8-8-8-|7-7-7-7-|5-5-5-5-|3-3-3-3-|
E|-6-6-6-6-|5-5-5-5-|5-5-5-5-|3-3-3-3-|

so I’m sorry for this, it might sting a bit.
[guitar 2]
E|---------|--------|--------|--------|
B|---------|--------|--------|--------|
G|---------|--------|7-7-7-7-|5-5-5-5-|
D|-8-8-8-8-|7-7-7-7-|7-7-7-7-|5-5-5-5-|
A|-8-8-8-8-|7-7-7-7-|5-5-5-5-|3-3-3-3-|
E|-6-6-6-6-|5-5-5-5-|5-5-5-5-|3-3-3-3-|

[guitar 3] (guitar with effect)
E|-----------------------------------------------|-----|
B|-----------------------------------------------|8-10-|
G|-9-10-9-------9-10-9-------9-10-9-------9-10-9-|-----|
D|--------10-12--------10-12--------10-12--------|-----|
A|-----------------------------------------------|-----|
E|-----------------------------------------------|-----|

Taste of your own medicine (taste of your own medicine)
[guitar 1]
E|---------|--------|--------|--------|
B|---------|--------|--------|--------|
G|---------|--------|7-7-7-7-|5-5-5-5-|
D|-8-8-8-8-|7-7-7-7-|7-7-7-7-|5-5-5-5-|
A|-8-8-8-8-|7-7-7-7-|5-5-5-5-|3-3-3-3-|
E|-6-6-6-6-|5-5-5-5-|5-5-5-5-|3-3-3-3-|

[guitar 2]
E|---------------------------------------------------------|
B|---------------------------------------------------------|
G|---------------------------------10-12-12-12-10-12-12-12-|
D|---------------------------------------------------------|
A|---------------------------------------------------------|
E|---------------------------------------------------------|

[guitar 3]
E|----------------------------------------------------|-------|
B|----------------------------------------------------|-------|
G|-12-14-14-14--10-12-12-12--10-12-12-12--10-12-12-12-|-------|
D|----------------------------------------------------|12--10-| 
A|----------------------------------------------------|-------|
E|----------------------------------------------------|-------|

Yeah, I’m sick to death of swallowing (sick to death of)
[guitar 1]
E|---------|--------|--------|--------|
B|---------|--------|--------|--------|
G|---------|--------|7-7-7-7-|5-5-5-5-|
D|-8-8-8-8-|7-7-7-7-|7-7-7-7-|5-5-5-5-|
A|-8-8-8-8-|7-7-7-7-|5-5-5-5-|3-3-3-3-|
E|-6-6-6-6-|5-5-5-5-|5-5-5-5-|3-3-3-3-|

[guitar 2]
E|---------------------------------------------------------|
B|---------------------------------------------------------|
G|---------------------------------10-12-12-12-10-12-12-12-|
D|---------------------------------------------------------|
A|---------------------------------------------------------|
E|---------------------------------------------------------|

[guitar 3]
E|----------------------------------------------------|-------|
B|----------------------------------------------------|-------|
G|-12-14-14-14--10-12-12-12--10-12-12-12--10-12-12-12-|-------|
D|----------------------------------------------------|12--10-| 
A|----------------------------------------------------|-------|
E|----------------------------------------------------|-------|

Watch me take the wheel like you, not feel like you
[guitar 1]
E|---------|--------|--------|--------|
B|---------|--------|--------|--------|
G|---------|--------|7-7-7-7-|5-5-5-5-|
D|-8-8-8-8-|7-7-7-7-|7-7-7-7-|5-5-5-5-|
A|-8-8-8-8-|7-7-7-7-|5-5-5-5-|3-3-3-3-|
E|-6-6-6-6-|5-5-5-5-|5-5-5-5-|3-3-3-3-|

[guitar 2]
E|----------------------------------------------------|-------|
B|----------------------------------------------------|-------|
G|-12-14-14-14--10-12-12-12--10-12-12-12--10-12-12-12-|-------|
D|----------------------------------------------------|12--10-| 
A|----------------------------------------------------|-------|
E|----------------------------------------------------|-------|

Act like nothing’s real like you So I’m sorry for this, it might sting a bit
[guitar 1]
E|--------|---------|--------|--------|
B|--------|---------|--------|--------|
G|--------|---------|7-7-7-7-|5-5-5-5-|
D|-8-8-8-8|-7-7-7-7-|7-7-7-7-|5-5-5-5-|
A|-8-8-8-8|-7-7-7-7-|5-5-5-5-|3-3-3-3-|
E|-6-6-6-6|-5-5-5-5-|5-5-5-5-|3-3-3-3-|

[guitar 2]
E|----------------------------------------------------|-------|
B|----------------------------------------------------|-------|
G|-12-14-14-14--10-12-12-12--10-12-12-12--10-12-12-12-|-------|
D|----------------------------------------------------|12--10-| 
A|----------------------------------------------------|-------|
E|----------------------------------------------------|-------|

[end]

Some people are a lot like clouds you know,
[guitar 1]
E|---------------------------------------|
B|---------------------------------------|
G|-------------------------------------7-|
D|-8-----------------------------------7-|
A|-8-----------------------------------5-|
E|-6-------------------------------------|

'cause life’s so much brighter when they go.
[guitar 1]
E|----------------------------------------|
B|----------------------------------------|
G|-5--------------------------------------|
D|-5------------------------------------5-|
A|-3------------------------------------5-|
E|--------------------------------------3-|

[guitar 2]
E|----------------------------------------------------|-------|
B|----------------------------------------------------|-------|
G|-12-14-14-14--10-12-12-12--10-12-12-12--10-12-12-12-|-------|
D|----------------------------------------------------|12--10-| 
A|----------------------------------------------------|-------|
E|----------------------------------------------------|-------|

[guitar 2]
E|-------------|---------------------------------------|
B|-------------|---------------------------------------|
G|-12-14-14-14-|-10-12-12-12--10-12-12-12--10-12-12-12-|
D|-------------|---------------------------------------| 
A|-------------|---------------------------------------|
E|-------------|---------------------------------------|

            
Submit corrections


        Medicine lessons Hard to play? Try these video lessons and learn fast Medicine lessons
        
↑ Back to top | Tablatures and chords for acoustic guitar and electric guitar, ukulele, drums are parodies/interpretations of the original songs. You may use it for private study, scholarship, research or language learning purposes only