» » »

Bring Me The Horizon - Fuck Tabs

Artists:  A B C D E F G H I J K L M N O P Q R S T U V W X Y Z # 

Fuck Tabs

(ver. 2) Click to play this song!
Bring Me The Horizon
 Rating:
4/5 (4 votes)

 Fuck lessons Tabs too difficult? Try these video lessons and learn fast
 
                
REAL FANS SUPPORT BANDS BY PURCHASING THEIR CDS!!!

. = Palm-Muted
~ = hold note
^ = vibrate
p = pull off
h = hammer on
/ = slide up
\ = slide down
* = harmonic


Tuning: Drop C

These are just the basics, the line u should be playing to cover the song :D
2nd best song on the record!
BMTH!!!

UPDATE NOTE:  This is CLEARLY the best tab around. 
              So DONT rate it down just because it doesnt have all the major riffs in it. 
              These are the BASICS.
              If you want to see the whole thing, check this cover:
              Please leave suggestions for changes!!



0:00
E-------------------------------------------------------------------------------|
B-------------------------------------------------------------------------------|
G-------------------------------------------------------------------------------|
D-------------------------------------------------------------------------------|
A---0--0---0-0-0-3p0---0-0----0-0-0-6p0--0---0-0-0---13-13--13---13-13-13-------|
E---0--0---0-0-0-3p0---0-0----0-0-0-6p0--0---0-0-0---13-13--13---13-13-13-------|

E------------------------------------------------------------------------------------|
B------------------------------------------------------------------------------------|
G------------------------------------------------------------------------------------|
D------------------------------------------------------------------------------------|
A--0--0---0-0-0-4--4-4--4-4-4-4--10/12--12-12--12-12-12---10/13--13-13--13-13-13-----|
E--0--0---0-0-0-4--4-4--4-4-4-4--10/12--12-12--12-12-12---10/13--13-13--13-13-13-----|

E-------------------------------------------------------------------------------|
B-------------------------------------------------------------------------------|
G-------------------------------------------------------------------------------|
D-------------------------------------------------------------------------------|
A---0--0---0-0-0-3p0---0-0----0-0-0-6p0--0---0-0-0---13-13--13---13-13-13-------|
E---0--0---0-0-0-3p0---0-0----0-0-0-6p0--0---0-0-0---13-13--13---13-13-13-------|

E------------------------------------------------|
B------------------------------------------------|
G------------------------------------------------|
D------------------------------------------------|
A---0--0---0-0-0-4---4-4---4-4-4-4---8-x16-------|
E---0--0---0-0-0-4---4-4---4-4-4-4---8-----------|



0:16
E-------------------------------------------------------------|
B-------------------------------------------------------------|
G-------------------------------------------------------------|
D-------------------------------------------------------------|
A---8-------7--------10-12--------10-13-----x--1--1--1--------|
E---8-x16---7-x16----10-12-x14----10-13-x7--x--1--1--1--------|

E-------------------------------------------------------------------|
B-------------------------------------------------------------------|
G-------------------------------------------------------------------|
D-------------------------------------------------------------------|
A---10-12--------10-13------1-1--1--1/--8-------7--------0~---------|
E---10-12-x14----10-13-x7---1-1--1--1/--8-x16---7-x16----0~---------|



0:33 (at this point theres also a 2nd guitar playing the C string open quite fast)
                                                                                         0:41
E-------------------------------------------------------------5*---------|
B-------------------------------------------------------------5*---------|
G------------------------------------------------------------------------|
D---------1-1-----------------------1-1--------------1-1-----------------|
A-----------------0----0-----------------------------------0-------------|
E---3-1p0---------0----0------3-1p0------------3-1p0-------0-------------|

E---------------------------------------------------------------------------|
B---------------------------------------------------------------------------|
G---------------------------------------------------------------------------|
D---------------------------------------------------------------------pinch-|
A--------------------------------3-3----------------------------------------|
E---0-0-0-0-0-0-0-0-0-0-0-0-00-x-3-3----0-0-0-0-0-0-0-0-0-0-0-0-0-0-0-0-----|


0:55
E-------------------------------------------------------------|
B-------------------------------------------------------------|
G-------------------------------------------------------------|
D-------------------------------------------------------------|
A---0-0-0---------0-0-0----------------0-0-0------------------|
E---0-0-0--0-0----0-0-0--0--0--0--0----0-0-0--0--0--0--0------|
    . . .         . . .                . . .
E---------------------------------------------------------------|
B---------------------------------------------------------------|
G---------------------------------------------------------------|
D---------------------------------------------------------------|   (play
A---0-0-0---------0-0-0-----------------0-0-0-------------------|    breakdown
E---0-0-0--0-0----0-0-0--0--000--11^----0-0-0--0--000--11^------|     twice)
    . . .         . . .                 . . .

1:10
E---------------------------------------------|
B---------------------------------------------|
G---------------------------------------------|
D---1~-----4~-----3~--------------------------|
A---1~-----4~-----3~-----0--3--1--0-----------|
E---1~-----4~-----3~-----0--3--1--0-----------|

E------------------------------------------------------------------------------|
B------------------------------------------------------------------------------|
G------------------------------------------------------------------------------|
D---------------------------------/6-6--6b7r6---------------6-6-6-7-7-7-7------|
A--0-3-1-0----/6^-----0--3-1-0--------------------0-3-1-0-------------------3--|
E--0-3-1-0------------0--3-1-0--------------------0-3-1-0--(6-6-6-7-7-7-7)--3--|



1:34
1
E---------------------------------------------------------------------------|
B---------------------------------------------------------------------------|
G---------------------------------------------------------------------------|
D---------------------------------------------------------------------------|
A---0-3-1-0--0~-----0--3-1-0---6-6-6^----0-3-1-0---6-6-6--7-7-7-7-7--3^-----|
E---0-3-1-0--0~-----0--3-1-0---6-6-6^----0-3-1-0---6-6-6--7-7-7-7-7--3^-----|

2
E---------------------------------------------------------------------------|
B---------------------------------------------------------------------------|
G---------------------------------------------------------------------------|
D---------------------------------------------------------------------------|
A---0-3-1-0--0~-----0--3-1-0---6-6-6^----0-3-1-0---6-6-6--7-7-7-7-7--3^-----|
E---0-3-1-0--0~-----0--3-1-0---6-6-6^----0-3-1-0---6-6-6--7-7-7-7-7--3^-----|


Solo during 2:
High part
E---------------------------------------------------------|
B--------8-6-8^---8b9r8^--6-------------------------------|
G---7^----------------------7-5-7^------------------------|
D------------------------------------7^---(7)slowb8-------|
A---------------------------------------------------------|
E---------------------------------------------------------|

Low part
E----------------------------------------------------------|
B----------------------------------------------------------|
G----------------------------------------------------------|
D---------5-3-5^---5b6or7r5^--3----------------------------|
A----5^-------------------------5-3-5^---------------------|
E----------------------------------------7^---(7)slowb8----|



1:52
E---------------------|
B---------------------|
G---------------------|
D---------1-1---------|
A---------------------|
E---3-1p0-------------|

E-------------------------------------------------------------------------------|
B-------------------------------------------------------------------------------|
G-------------------------------------------------------------------------------|
D-------------------------------------------------------------------------------|
A---0--0---0-0-0-3p0---0-0----0-0-0-6p0--0---0-0-0---13-13--13---13-13-13-------|
E---0--0---0-0-0-3p0---0-0----0-0-0-6p0--0---0-0-0---13-13--13---13-13-13-------|

E------------------------------------------------------------------------------------|
B------------------------------------------------------------------------------------|
G------------------------------------------------------------------------------------|
D------------------------------------------------------------------------------------|
A--0--0---0-0-0-4--4-4--4-4-4-4--10/12--12-12--12-12-12---10/13--13-13--13-13-13-----|
E--0--0---0-0-0-4--4-4--4-4-4-4--10/12--12-12--12-12-12---10/13--13-13--13-13-13-----|

E-------------------------------------------------------------------------------|
B-------------------------------------------------------------------------------|
G-------------------------------------------------------------------------------|
D-------------------------------------------------------------------------------|
A---0--0---0-0-0-3p0---0-0----0-0-0-6p0--0---0-0-0---13-13--13---13-13-13-------|
E---0--0---0-0-0-3p0---0-0----0-0-0-6p0--0---0-0-0---13-13--13---13-13-13-------|

E-----------------------------------------------------|
B-----------------------------------------------------|
G-----------------------------------------------------|
D-----------------------------------------------------|
A---0--0---0-0-0-4---4-4---4-4-4-4---8-x16---7--------|
E---0--0---0-0-0-4---4-4---4-4-4-4---8-------7-x16----|


2:12
E---------------------------------------------|
B---------------------------------------------|
G---------------------------------------------|
D---------------------------------------------|
A---7--7--7-7--7---7-8--8--8-8--8---8---------|
E---7--7--7-7--7---7-8--8--8-8--8---8---------|

E---------------------------------------------|
B---------------------------------------------|
G---------------------------------------------|
D---------------------------------------------|
A---7--7--7-7--7---7-8--8--8-8--8---8---------|
E---7--7--7-7--7---7-8--8--8-8--8---8---------|


2:27
E-----------------------------------------|
B-----------------------------------------|
G-----------------------------------------|
D----8------10-------7-------8------------| x2
A----8-x8---10-x8----7-x8----8-x8---------|
E----8------10-------7-------8------------|


2:42 hold all the notes
E-------------------------------------------------|
B---10----13-----6---------8-----6-----5----------|
G---7-----10-----3---------5-----3-----2----------|
D-------------------------------------------------|
A-------------------------------------------------|
E-------------------------------------------------|

3:13
E------------------------------------------------------------------------------|
B------------------------------------------------------------------------------|
G------------------------------------------------------------------------------|
D---12-12--12-12----12-12--12-12----15---15\----8-8--8-8----8-8--8-8-----------|
A---12-12--12-12----12-12--12-12----15---15\----8-8--8-8----8-8--8-8-----------|
E---12-12--12-12----12-12--12-12----15---15\----8-8--8-8----8-8--8-8-----------|

E------------------------------------------------------------------------------|
B------------------------------------------------------------------------------|
G------------------------------------------------------------------------------|
D---10-10--10-10----10-10--10-10-------15-15--15-15----14-14--14-14------------|
A---10-10—-10-10----10-10--10-10-------10-10--10-10----10-10--10-10------------|
E---10-10--10-10----10-10--10-10-------10-10--10-10----10-10--10-10------------|

Afterwards just strumm the chords... up and down, u know the deal


4:12
E--------------------------------------------------------------------------|
B--------------------------------------------------------------------------|
G--------------------------------------------------------------------------|
D---12-12--12-12---12-12--12-12--10-10-10-10----12-12--12-12---8~----------|
A---12-12--12-12---12-12--12-12--10-10-10-10----12-12--12-12---8~----------|
E---12-12--12-12---12-12--12-12--10-10-10-10----12-12--12-12---8~----------|



and thats it... i hope u enjoyed, please rate and comment (PLEASE correct me!)

Cheers...
            
Submit corrections


        Fuck lessons Hard to play? Try these video lessons and learn fast Fuck lessons
        
↑ Back to top | Tablatures and chords for acoustic guitar and electric guitar, ukulele, drums are parodies/interpretations of the original songs. You may use it for private study, scholarship, research or language learning purposes only