» » »

Bring Me The Horizon - Drown Tabs

Artists:  A B C D E F G H I J K L M N O P Q R S T U V W X Y Z # 

Drown Tabs

(ver. 1) Click to play this song!
Bring Me The Horizon
 Rating:
4/5 (4 votes)

 Drown  lessons Tabs too difficult? Try these video lessons and learn fast
 
                Tuning: Standard

intro (0:00-0:20)
e|---------------------------------------------------------------------------|
B|---------------------------------------------------------------------------|
G|---------------------6---6---66-6-6-6--------------------------------------|
D|-7---7---77-7-7-7----6---6---66-6-6-6--6---6---66-6-6-6--------------------|
A|-7---7---77-7-7-7----4---4---44-4-4-4--6---6---66-6-6-6--whole-thing-x2----|
E|-5---5---55-5-5-5--x2------------------4---4---44-4-4-4--------------------|

Verse (0:21-0:33)
e|--------------------------------------0------------------------------------|
B|---------------------------------------------------------------------------|
G|-----16~--------------16~----------------16--------------------------------|
D|-------------18~---------------18~-----------18~---------------------------|
A|-16------16--------16------16--------16----------whole-thing-x2------------|
E|---------------------------------------------------------------------------|

Verse part two (same as intro) (0:34-0:47)
e|---------------------------------------------------------------------------|
B|---------------------------------------------------------------------------|
G|---------------------6---6---66-6-6-6--------------------------------------|
D|-7---7---77-7-7-7----6---6---66-6-6-6--6---6---66-6-6-6--------------------|
A|-7---7---77-7-7-7----4---4---44-4-4-4--6---6---66-6-6-6--whole-thing-x2----|
E|-5---5---55-5-5-5--x2------------------4---4---44-4-4-4--------------------|

Pre chorus (0:48-1:00)
e|---------------------------------------------------------------------------|
B|---------------------------------------------------------------------------|
G|----16~---------16~---------16~---------16~--------------------------------|
D|--------18~---------18~---------18~---------18~----------------------------|
A|------------------------19~---------16~---------19~------------------------|
E|---------------------------------------------------------------------------|

Chorus (1:01-1:27)
e|---------------------------------------------------------------------------|
B|---------------------------------------------------------------------------|
G|--------------------66666666-----------------------------------------------|
D|-77777777---7777777-66666666---6666666-------------------------------------|
A|-77777777---7777777-44444444---6666666-------------------------------------|
E|-55555555---5555555------------4444444-------------------------------------|

Verse two (1:28-1:44)
e|--------------------------------------0------------------------------------|
B|---------------------------------------------------------------------------|
G|-----16~--------------16~----------------16--------------------------------|
D|-------------18~---------------18~-----------18~---------------------------|
A|-16------16--------16------16--------16----------whole-thing-x2------------|
E|---------------------------------------------------------------------------|

Verse two part two (1:45-1:57) not 100% sure about this part
e|---------------------------------------------------------------------------|
B|---------------------------------------------------------------------------|
G|-22222222444444446666666688889999------------------------------------------|
D|-22222222444444446666666688889999------------------------------------------|
A|-00000000222222224444444466667777-------whole-thing twice-x2---------------|
E|---------------------------------------------------------------------------|

Pre chorus two (1:58-2:11)
e|---------------------------------------------------------------------------|
B|---------------------------------------------------------------------------|
G|----16~---------16~---------16~---------16~--------------------------------|
D|--------18~---------18~---------18~---------18~----------------------------|
A|------------------------19~---------16~---------19~------------------------|
E|---------------------------------------------------------------------------|

Chorus two (2:12-2:38)
e|---------------------------------------------------------------------------|
B|---------------------------------------------------------------------------|
G|--------------------------66666666-----------------------------------------|
D|-(once)77777777---7777777-66666666---6666666-------------------------------|
A|---xxxx77777777---7777777-44444444---6666666------whole-thing-x4-----------|
E|---xxxx55555555---5555555------------4444444-------------------------------|

Weird jingly bit (2:39-2:51)
e|---------------------------------------------------------------------------|
B|---9/7/5/9-9~---9/7/5/12/9/7~---9/7/5/10/9~---12~---7~---9~----------------|
G|---------------------------------------------------------------------------|
D|---------------------------------------------------------------------------|
A|---------------------------------------------------------------------------|
E|---------------------------------------------------------------------------|

Bridge   (2:52-3:17) not 100% sure about this part
e|---------------------------------------------------------------------------|
B|---------------------------------------------------------------------------|
G|---------------------------------------------------------------------------|
D|--------18-------18~----18~------------------------------------------------|
A|--16-19----19-18-----16---------------whole-thing-x4-----------------------|
E|---------------------------------------------------------------------------|

Outro part one (3:18-3:45)
e|---------------------------------------------------------------------------|
B|---------------------------------------------------------------------------|
G|---------------------6---6---66-6-6-6--------------------------------------|
D|-7---7---77-7-7-7----6---6---66-6-6-6--6---6---66-6-6-6--------------------|
A|-7---7---77-7-7-7----4---4---44-4-4-4--6---6---66-6-6-6--------------------|
E|-5---5---55-5-5-5--x2------------------4---4---44-4-4-4--------------------|

Outro part two chords (3:45-3:59)
e|-0---0---0-----------------------------------------------------------------|
B|-2---2---2-----------------------------------------------------------------|
G|-2---2---2-----------------------------------------------------------------|
D|-2---2---2-----------------------------------------------------------------|
A|-0---4---0-----------------------------------------------------------------|
E|---------4-----------------------------------------------------------------|

            
Submit corrections


        Drown  lessons Hard to play? Try these video lessons and learn fast Drown  lessons
        
↑ Back to top | Tablatures and chords for acoustic guitar and electric guitar, ukulele, drums are parodies/interpretations of the original songs. You may use it for private study, scholarship, research or language learning purposes only