Home » B » Bring Me The Horizon »

Bring Me The Horizon - Chelsea Smile Bass

Artists:  A B C D E F G H I J K L M N O P Q R S T U V W X Y Z # 

Chelsea Smile Bass

(ver. 2) Click to play this song!
Bring Me The Horizon

CHELSEA SMILE (Bassline)
As recorded by Bring Me The Horizon
(From the 2008 Album SUICIDE SEASON)

	

Words by Oliver Sykes Music by Bring Me The Horizon

Gtr I (Bb F Bb Eb) - 'w/pick'

 Intro
  Fast Metalcore Q=192
 4/4
  Gtr I
  Wx8
|--------||
|--------||
|--------||
|--------||


 Breakdown
  E E E E E E E E   E E E E E E E E   E E E E E E E E   E E E E E E E E
|-----------------|-----------------|-----------------|-----------------|
|-----------------|-----------------|-----------------|-----------------|
|-----------------|-----------------|-----------------|-----------------|
|-0-0-0-0---0-0-0-|-0-0-0---0-0-0-0-|---0-0-0-0-0-0-0-|-0-0-0-0-0-0-0-0-|


  E E E E E E E E   E E E E E E E E   W          E Q.   E E Q
|-----------------|-----------------|----------|---------------|
|-----------------|-----------------|----------|---------------|
|-----------------|-----------------|----------|---------------|
|-0-0-0-0---0-0-0-|-0-0-0---0-0-0-0-|----------|-0-0----0-0----|


  E E E E E E E E   E E E E E E E E   E E E E E E E E   E E E E E E E E
|-----------------|-----------------|-----------------|-----------------|
|-----------------|-----------------|-----------------|-----------------|
|-----------------|-----------------|-----------------|-----------------|
|-0-0-0-0---0-0-0-|-0-0-0---0-0-0-0-|---0-0-0-0-0-0-0-|-0-0-0-0-0-0-0-0-|


  E E E E E E E E   E E E E E E E E   +W            W        a
|-----------------|-----------------|------------|-------------||
|-----------------|-----------------|------------|-------------||
|-----------------|-----------------|------------|-------------||
|-0-0-0-0---0-0-0-|-0-0-0---0-0-0-0-|-(0)--------|-12s=======0-||


   Verse
    Q.   Q  E E E   E E E E E E E E   Q.   Q  E E E   E E E E E E E E
||----------------|-----------------|---------------|------------------|
||o---------------|-----------------|---------------|---------6--------|
||o-6----5--------|-----------------|-6----5--------|-----------6-5----|
||----------0-0-0-|---0-0---0-0-0-0-|---------0-0-0-|---0-0-0-------0--|


  Q.   Q  E E E   E E E E E E E E   Q.   Q  E E E   Q  E Q  E E E
|---------------|-----------------|---------------|----------------||
|---------------|-----------------|---------------|---------------o||
|-6----5--------|-----------------|-6----6--6-6-6-|-6--6-9--9-9-9-o||
|---------0-0-0-|---0-0---0-0-0-0-|---------------|----------------||


 Chorus
  Q  Q  Q  Q    Q  Q  Q  Q    Q  Q  Q  Q    Q  Q  Q  Q
|-------------|-------------|-------------|-------------|
|-------------|-------------|-------------|-------------|
|-5--5--5--5--|-5--5--5--5--|-1--1--1--1--|-1--1--1--1--|
|-------------|-------------|-------------|-------------|


  Q  Q  Q  Q    Q  Q  Q  Q    Q  Q  Q  Q    Q  Q  Q  Q
|-------------|-------------|-------------|-------------||
|-------------|-------------|-------------|-------------||
|-------------|-------------|-------------|-------------||
|-5--5--5--5--|-5--5--5--5--|-7--7--7--7--|-7--7--7--7--||


 Verse
  Q  Q  E Q  E   +E  E E E E Q  E   +E  E E E E E E E   +E  E E E E E E E
|--------------|------------------|-------------------|-------------------|
|--------------|------------------|-------------------|-------------------|
|--------------|------------------|-------3---3h5-----|-------3---3h5-----|
|-8--8--8-8--5-|-(5)-0h5-0h5h7--0-|-(0)-0---0-----0-0-|-(0)-0---0-----0-8-|


  +Q   Q  E Q  E   +E  E E E E Q  E   +E  E E E E E E E   E E E E E E E E
|----------------|------------------|-------------------|-----------------|
|----------------|------------------|-------------------|-----------------|
|----------------|------------------|-------------------|-----------------|
|-(8)--8--8-8--5-|-(5)-0h5-0h5h7--0-|-(0)-0-0-0-0---0---|-0---0---0-0-0-8-|


  +Q   Q  E Q  E   +E  E E E E Q  E   +E  E E E E E E E   +E  E E E E E E E
|----------------|------------------|-------------------|-------------------|
|----------------|------------------|-------------------|-------------------|
|----------------|------------------|-------3---3h5-----|-------3---3h5-----|
|-(8)--8--8-8--5-|-(5)-0h5-0h5h7--0-|-(0)-0---0-----0-0-|-(0)-0---0-----0-8-|


  +Q   Q  E Q  E   +E  E E E E E E E
|----------------|-------------------||
|----------------|-------------------||
|----------------|-------------------||
|-(8)--8--8-8--5-|-(5)-0h5-0h5h7-7-7-||


   E E E E E E E E   E E E E E E E E   E E E E E Q.     E E Q  E E E E
||-----------------|-----------------|----------------|-----------------||
||-----------------|-----------------|----------------|-----------------||
||-----------------|-----------------|----------------|-----------------||
||-0-0-0-0---0-0-0-|-0---0---0-0-0-0-|---0-0-0-0------|-0-0----0-0-0-0--||


   Verse
    Q.   Q  E E E   E E E E E E E E   Q.   Q  E E E   Q.   Q  E E E
||----------------|-----------------|---------------|----------------|
||o---------------|-----------------|---------------|----------------|
||o-5----3--------|-----------------|-5----3----3---|-5----6----6----|
||----------0-0-0-|---0-0---0-0-0-0-|---------0---0-|---------0---0--|


  Q.   Q  E E E   E E E E E E E E   E E E E E E E E   E E E E E  E E E
|---------------|-----------------|-----------------|-------------------||
|---------------|-----------------|-----------------|------------------o||
|-5----3--------|-----------------|-5---------------|------------------o||
|---------0-0-0-|---0-0---0-0-0-0-|---6p0-5p0-0-3p0-|-0-3p0-0-3-/6-6-6--||


   Verse
    Q.   Q  E E E   E E E E E E E E   Q.   Q  E E E   E E E E E E E E
||----------------|-----------------|---------------|------------------|
||o---------------|-----------------|---------------|---------6--------|
||o-6----5--------|-----------------|-6----5--------|-----------6-5----|
||----------0-0-0-|---0-0---0-0-0-0-|---------0-0-0-|---0-0-0-------0--|


  Q.   Q  E E E   E E E E E E E E   Q.   Q  E E E   Q  E Q  E E E
|---------------|-----------------|---------------|----------------||
|---------------|-----------------|---------------|---------------o||
|-6----5--------|-----------------|-6----6--6-6-6-|-6--6-9--9-9-9-o||
|---------0-0-0-|---0-0---0-0-0-0-|---------------|----------------||


  Slower Q=126
              2/4
  Wx8          H
|------------|------||
|------------|------||
|------------|------||
|------------|------||


   Breakdown
   4/4
    E Q.   Q.    +E    E Q.   E E E E   E Q.   Q.    +E    E Q.   E E E E
||-------------------|----------------|------------------|------------------||
||o------------------|----------------|------------------|-----------------o||
||o------------------|----------------|------------------|-----------------o||
||--1-0----4b5---(4)-|-1-0----0-0-0-0-|-1-0----4b5---(4)-|-1-0----0-0-0-0---||


  H.=H                Slower Q=100
                            2/4
  \6____________________________/
  W            +H     H      Q  Q
|------------|-------------|-------||
|------------|-------------|-------||
|------------|-------------|-------||
|-8----------|-(8)---------|----8--||


 Bridge
  Original Tempo Q=192
 4/4
  Q  Q  Q  Q    Q  Q  Q  Q    Q  Q  Q  Q    Q  Q  Q  Q
|-------------|-------------|-------------|-------------|
|-------------|-------------|-------------|-------------|
|-1--1--1--1--|-1--1--1--1--|-3--3--3--3--|-3--3--3--3--|
|-------------|-------------|-------------|-------------|


  Q  Q  Q  Q    Q  Q  Q  Q    Q  Q  Q  Q    Q  Q  Q  Q
|-------------|-------------|-------------|-------------|
|-------------|-------------|-------------|-------------|
|-5--5--5--5--|-5--5--5--5--|-5--5--5--5--|-5--5--5--5--|
|-------------|-------------|-------------|-------------|


  Q  Q  Q  Q    Q  Q  Q  Q    Q  Q  Q  Q    Q  Q  Q  Q
|-------------|-------------|-------------|-------------|
|-------------|-------------|-------------|-------------|
|-1--1--1--1--|-1--1--1--1--|-3--3--3--3--|-3--3--3--3--|
|-------------|-------------|-------------|-------------|


  Q  Q  Q  Q    Q  Q  Q  Q    Q  Q  Q  Q    Q  Q  Q  Q
|-------------|-------------|-------------|-------------|
|-------------|-------------|-------------|-------------|
|-------------|-------------|-------------|-------------|
|-5--5--5--5--|-5--5--5--5--|-5--5--5--5--|-5--5--5--5--|


    Gtr I
    Q  Q  Q  Q    Q  Q  Q  Q     Q  Q  Q  Q      Q   Q  Q  Q
||--------------|-------------|--------------|-----------------|
||o-------------|-------------|--------------|-----------------|
||o-5--5--5--5--|-5--5--5--5--|--5--5--5--5--|---5---5--5--5---|
||--------------|-------------|--------------|-----------------|

    Q   Q  Q  Q      Q   Q  Q  Q    Q  Q  Q  Q     Q   Q  Q  Q
|----------------|----------------|-------------|----------------||
|----------------|----------------|-------------|---------------o||
|---3---3--3--3--|---3---3--3--3--|-3--3--3--3--|--3---3--3--3--o||
|----------------|----------------|-------------|----------------||

 Interlude
  >
  W          +W           +W           +W
|----------|------------|------------|--------|
|----------|------------|------------|--------|
|-5--------|-(5)--------|-(5)--------|-(5)----|
|----------|------------|------------|--------|


 Breakdown
  E E E E E E E E   E E E E E E E E   E E E E E E E E   E E E E E E E E
|-----------------|-----------------|-----------------|-----------------|
|-----------------|-----------------|-----------------|-----------------|
|-----------------|-----------------|-----------------|-----------------|
|-0-0-0-0---0-0-0-|-0-0-0---0-0-0-0-|---0-0-0-0-0-0-0-|-0-0-0-0-0-0-0-0-|


  E E E E E E E E   E E E E E E E E   W          E Q.   E E Q
|-----------------|-----------------|----------|---------------|
|-----------------|-----------------|----------|---------------|
|-----------------|-----------------|----------|---------------|
|-0-0-0-0---0-0-0-|-0-0-0---0-0-0-0-|----------|-0-0----0-0----|


  E E E E E E E E   E E E E E E E E   E E E E E E E E   E E E E E E E E
|-----------------|-----------------|-----------------|-----------------|
|-----------------|-----------------|-----------------|-----------------|
|-----------------|-----------------|-----------------|-----------------|
|-0-0-0-0---0-0-0-|-0-0-0---0-0-0-0-|---0-0-0-0-0-0-0-|-0-0-0-0-0-0-0-0-|


  E E E E E E E E   E E E E E E E E   +W            W        a
|-----------------|-----------------|------------|-------------||
|-----------------|-----------------|------------|-------------||
|-----------------|-----------------|------------|-------------||
|-0-0-0-0---0-0-0-|-0-0-0---0-0-0-0-|-(0)--------|-12s=======0-||


 Verse
  Wx6          E E E E E E E E   E E E E E  E E E
|------------|-----------------|------------------|
|------------|-----------------|------------------|
|------------|-5---------------|------------------|
|------------|---6p0-5p0-0-3p0-|-0-3p0-0-3-/6-6-6-|


    Q.   Q  E E E   E E E E E E E E   Q.   Q  E E E   Q.   Q  E E E
||----------------|-----------------|---------------|----------------|
||o---------------|-----------------|---------------|----------------|
||o-5----3--------|-----------------|-5----3----3---|-5----6----6----|
||----------0-0-0-|---0-0---0-0-0-0-|---------0---0-|---------0---0--|


                                   1.
  Q.   Q  E E E   E E E E E E E E   E E E E E E E E   E E E E E  E E E
|---------------|-----------------|-----------------|-------------------||
|---------------|-----------------|-----------------|------------------o||
|-5----3--------|-----------------|-5---------------|------------------o||
|---------0-0-0-|---0-0---0-0-0-0-|---6p0-5p0-0-3p0-|-0-3p0-0-3-/6-6-6--||


  2.
  W          W           Q  H.        W
|----------|----------||------------:------*|
|----------|----------||------------:------*|
|----------|----------||------------:------*|
|----------|----------||-0----------:------*|



Duration Legend
---------------
W - whole; H - half; Q - quarter; E - 8th; S - 16th; T - 32nd; X - 64th; a - acciaccatura
+ - note tied to previous; . - note dotted; .. - note double dotted
Uncapitalized letters represent notes that are staccato (1/2 duration)
Irregular groupings are notated above the duration line
Duration letters will always appear directly above the note/fret number it represents the
duration for.  Duration letters with no fret number below them represent rests.  Multi-
bar rests are notated in the form Wxn, where n is the number of bars to rest for.  Low
melody durations appear below the staff

Tablature Legend
----------------
 h   - hammer-on
 p   - pull-off
 b   - bend
 pb  - pre-bend
 r   - bend release (if no number after the r, then release immediately)
 /\  - slide into or out of (from/to "nowhere")
 s   - legato slide
 S   - shift slide
 - natural harmonic
[n]  - artificial harmonic
n(n) - tapped harmonic
 ~   - vibrato
 tr  - trill
 T   - tap
 TP  - trem. picking
 PM  - palm muting
\n/  - tremolo bar dip; n = amount to dip
 \n  - tremolo bar down
 n/  - tremolo bar up
/n\  - tremolo bar inverted dip
 =   - hold bend; also acts as connecting device for hammers/pulls
 <> - volume swell (louder/softer)
 x   - on rhythm slash represents muted slash
 o   - on rhythm slash represents single note slash

Misc Legend
-----------
 |  - bar
||  - double bar
||o - repeat start
o|| - repeat end
*|  - double bar (ending)
 :  - bar (freetime)
 $  - Segno
 &  - Coda
Tempo markers -  = BPM(8/16=s8/s16), where s8 = swing 8ths, s16 = swing 16ths
            
Submit corrections

↑ Back to top | Tablatures and chords for acoustic guitar and electric guitar, ukulele, drums are parodies/interpretations of the original songs. You may use it for private study, scholarship, research or language learning purposes only