» » »

Bring Me The Horizon - Avalanche Tabs

Artists:  A B C D E F G H I J K L M N O P Q R S T U V W X Y Z # 

Avalanche Tabs

(ver. 2) Click to play this song!
Bring Me The Horizon
 Rating:
4.3/5 (29 votes)

 Avalanche  lessons Tabs too difficult? Try these video lessons and learn fast
 
                Chorus Riff
E|----------------------------------------------------------------------------------------------------
B|----------------------------------------------------------------------------------------------------
G|----------------------------------------------------------------------------------------------------
D|----------------------------------------------------------------------------------------------------
A|----------------------------------------------------------------------------------------------------
E|-3-3-3-3-3-3-3-3-3-3-3-3-3-5-5-5-7-7-7-7-7-7-7-7-7-7-7-7-7-10-10-10-5-5-5-5-5-5-5-5-5-5-5-5-5-5-5-5-

E|---------------------------------
B|---------------------------------
G|---------------------------------
D|---------------------------------
A|---------------------------------
E|-0-0-0-0-0-0-0-0-2-2-2-2-2-2-2-2-

Verse Riff
E|---------------------------------|-----------------------------------
B|-------8---------------8/5-------|-----------------------------------
G|---9-------9---9---9---------5\7-|--------9----------------7-----7\9-
D|-7---7---7---7---7---7-----7-----|---10-----7---10/7---7-------------
A|---------------------------------|-8----8-----8------5---5---5-5-----
E|---------------------------------|-----------------------------------

Bridge Riff
E|--------------------------------------------------------------------------------------------------
B|--------------------------------------------------------------------------------------------------
G|--------------------------------------------------------------------------------------------------
D|--------------------------------------------------------------------------------------------------
A|--------------------------------------------------------------------------------------------------
E|--3--3--3--3--3--3--3--3--3--3--3--3--3--5--5--5--7--7--7--7--7--7--7--7--2--2--2--2--2--2--2--2--

Vocal Riff
E|-------------------------------------|------------------------------------
B|-------------------------------------|------------------------------------
G|-------------------------------------|-12-12/10-10-10-10/9-9-9-9-7----7---
D|-10-12-12-10----10-10\12-14-12/10-10-|-----------------------------10---7-
A|-------------------------------------|------------------------------------
E|-------------------------------------|------------------------------------

E|-------------------------------------|---------------------------------------
B|-------------------------------------|---------------------------------------
G|-12-12/10-10-10-10/9-9-9-9-7----7----|--------9---9-7----------------9-7-----
D|-----------------------------10---10-|-7-9-10---7-----10-9-7----9-10-----9-7-
A|-------------------------------------|---------------------------------------
E|-------------------------------------|---------------------------------------

Chorus Vocal Melody
E|-----------------------10-10-8-8-----------10-10-8-8----------------
B|-10-10-12-13-12-10/8-8-----------12-10-8-8-----------12-13-12-10-10-
G|--------------------------------------------------------------------
D|--------------------------------------------------------------------
A|--------------------------------------------------------------------
E|--------------------------------------------------------------------

Bridge Vocal
E|----------------------------------------------------------------
B|-20-17-------20-17-15-13-15-15----15-13-15----15-15-15-17-15-13-
G|-------14-14----------------------------------------------------
D|----------------------------------------------------------------
A|----------------------------------------------------------------
E|----------------------------------------------------------------            
Submit corrections


        Avalanche  lessons Hard to play? Try these video lessons and learn fast Avalanche  lessons
        
↑ Back to top | Tablatures and chords for acoustic guitar and electric guitar, ukulele, drums are parodies/interpretations of the original songs. You may use it for private study, scholarship, research or language learning purposes only